Cifra Club

Maria e o Anjo

Anjos de Resgate

Cifra: Principal (violão e guitarra)
Selo Cifra Club: esta cifra foi revisada para atender aos critérios oficiais da nossa Equipe de Qualidade.
tom: A
[Intro]

E|----------------------------------------------|
B|--7/9~--10~--9--------------------------------|
G|----------------9---6---9/11------------------|
D|----------------------------------------------|
A|----------------------------------------------|
E|----------------------------------------------|

E|--------------------------------------------------------------------------|
B|--0-7-9-10~-9--------------------------------10--7-10-10-9~7-9------------|
G|---------------9-6-9/11-9~11-9----7--9~11----------------------11--9~7-9--|
D|-------------------------------7----------7-------------------------------|
A|--------------------------------------------------------------------------|
E|--------------------------------------------------------------------------|

  E                    A
Quem serás tú criatura bela
                      Bm
Que encheu meu quarto com tua luz?
                        D  E4
O teu olhar me trouxe a paz
        E/D      A/C#  D/E
Tua presença me refaz

                   A
Eu sou o anjo Gabriel
                   D
Venho em nome do Senhor
         A/C#        Bm  D/E
Darás a luz ao salvador
      E             A   Em7  A
Serás a mãe do Emanuel!

      D                             E/D
Por que teus lábios tremem tanto assim?
    C#m                          F#m
Por que não tira os teus olhos de mim?
    Bm                          E
Há tanta graça em estar diante de ti
     A             Bm7          C#m5+
E o céu inteiro espera por teu sim

     D                  D/E
Não temas doce anjo do Senhor
  C#m                  F#4  F#
Escuta o que agora vou falar
 Bm                  E
Sorri e vai ao céu anunciar
         D7M  D/E       A    D  A
Sim, eu serei a Mãe do salvador

       Bm  E         A  F#m
Ave Maria,quanta alegria
             Bm     D/E      E      A     A/G
O céu se encheu de luz,pois vai nascer Jesus!
       D/F#   Dm/F      A/E    D#º
Santa Maria, Deus escolheu-te bem
           D7M   D/E    E    A
E todos os anjos    cantam amém!


E|------------------------------------------|
B|-0-7-9-10-9/7-9---------------------------|
G|----------------7--9/11--9~-11-9---7------|
D|---------------------------------7--------|
A|------------------------------------------|
E|------------------------------------------|
00:00 / 00:00
Outros vídeos desta música
Repetir
Outros vídeos desta música
357.590 exibições
    • ½ Tom
    • A
    • Bb
    • B
    • C
    • Db
    • D
    • Eb
    • E
    • F
    • F#
    • G
    • Ab
  • Adicionar à lista

Afinação da cifra

Afinador online

    0 comentários

    Ver todos os comentários

    Entre para o Cifra Club PRO

    Tenha acesso a benefícios exclusivos no App e no Site

    • Chega de anúncios

    • Mais recursos no app do Afinador

    • Atendimento Prioritário

    • Aumente seu limite de lista

    • Ajude a produzir mais conteúdo

    00:00 / 00:00

    Cifra Club Pro

    Aproveite o Cifra Club com benefícios exclusivos e sem anúncios
    Cifra Club Pro
    Aproveite o Cifra Club com benefícios exclusivos e sem anúncios
    OK