Cifra Club

Maria e o Anjo

Anjos de Resgate

Cifra: Principal
exibições 215.718
Tom: D
[Intro]

E|----------------------------------------------|
B|--7/9~--10~--9--------------------------------|
G|----------------9---6---9/11------------------|
D|----------------------------------------------|
A|----------------------------------------------|
E|----------------------------------------------|

E|--------------------------------------------------------------------------|
B|--0-7-9-10~-9--------------------------------10--7-10-10-9~7-9------------|
G|---------------9-6-9/11-9~11-9----7--9~11----------------------11--9~7-9--|
D|-------------------------------7----------7-------------------------------|
A|--------------------------------------------------------------------------|
E|--------------------------------------------------------------------------|

  E                     A
Quem serás tú criatura bela
                               Bm
Que encheu meu quarto com tua luz?
                         D  E
O teu olhar me trouxe a paz
        E/D      A/C#  D/E
Tua presença me refaz

                   A
Eu sou o anjo Gabriel
                  D
Venho em nome do Senhor
         A/C#        Bm  D/E
Darás a luz ao salvador
      E             A   Em7  A
Serás a mãe do Emanuel!

      D                             E/D
Por que teus lábios tremem tanto assim?
      C#m                          F#m
Por que não tira os teus olhos de mim?
    Bm                             E
Há tanta graça em estar diante de ti
     A             Bm7          C#m5+
E o céu inteiro espera por teu sim

     D                  D/E
Não temas doce anjo do Senhor
   C#m                  F#4  F#
Escuta o que agora vou falar
 Bm                  E
Sorri e vai ao céu anunciar
         D7+  D/E          A    D  A
Sim, eu serei a Mãe do salvador

       Bm   E         A  F#m
Ave Maria,quanta alegria
             Bm     D/E      E      A     A/G
O céu se encheu de luz,pois vai nascer Jesus!
       D/F#   Dm/F      A/E    D#º
Santa Maria, Deus escolheu-te bem
           D7+   D/E    E    A
E todos os anjos    cantam amém!


E|------------------------------------------|
B|-0-7-9-10-9/7-9---------------------------|
G|----------------7--9/11--9~>11-9---7------|
D|---------------------------------7--------|
A|------------------------------------------|
E|------------------------------------------|
Acordes para:
    Colaboração e revisão:
    • Marcos Paulo
    • Gerson Castilho
    • Marco Gomes

    0 comentários

      mostrar mais comentários

      Conseguiu tocar?

      4tocaram1ainda não

      Grave um vídeo tocando Maria e o Anjo e mande pra gente!

      00:00 / 00:00
      outros vídeos desta música
      repetirqualidadeautomática
      Outro vídeos desta música
        00:00 / 00:00
        automática
        OK