Cifra Club

Glória a Deus Nas Alturas

Eliana Ribeiro

Cifra: Principal (violão e guitarra)
Tom: G
[Intro]

     D9                  C9
E|---------0---------0---------0---------0--|
B|-----3---------3---------3---------3------|
G|---2---2-----2---2-----0---0-----0---0----|
D|-0---------0------------------------------|
A|---------------------3---------3----------|
E|------------------------------------------|

     D9                           C9
E|-------------------------------------------------|
B|-------------------------------------------------|
G|-14--14-14-14-14--14--12--11--12--11--9--9--9--9-|
D|-------------------------------------------------|
A|-12--12-12-12-12--12--10---9--10---9--7--7--7--7-|
E|-------------------------------------------------|

     D9                           C9
E|--------------------------------------------|
B|--------------------------------------------|
G|-14--14-14-14-14--14--12--11--12--11--9--9--|
D|--------------------------------------------|
A|-12--12-12-12-12--12--10---9--10---9--7--7--|
E|--------------------------------------------|

  D                  C
Glória a Deus nas alturas
   G
E paz na Terra
                     D
Aos homens por Ele amados
              C
Senhor Deus, Rei dos Céus
 G                 D
Deus Pai Todo Poderoso
            Am   D
Nós vos louvamos
              Am   D
Nós vos bendizemos
            Am   D
Nós vos adoramos
                Am   D
Nós vos glorificamos
                C
Nós vos damos graças
     G             D
Por vossa imensa glória
               C
Senhor Jesus Cristo
 G        D
Filho Unigênito
                 C
Senhor Deus, Cordeiro de Deus
 G             D
Filho de Deus Pai
 Am                  G
Vós, que tirais o pecado do mundo
 C                D
Tende piedade de nós
 Am                  G
Vós, que tirais o pecado do mundo
C                D
Acolhei a nossa súplica
 Am                  G
Vós, que estais à direita do Pai
 C                D
Tende piedade de nós
               Am   D
Só vós sois o Santo
              Am  D
Só vós, o Senhor
             C               D
Só vós, o Altíssimo, Jesus Cristo
 E              A
Com o Espírito Santo
                   G     D
Na glória de Deus Pai. Amém!
                   G  C  D
Na glória de Deus Pai. Amém!
                   G     D
Na glória de Deus Pai. Amém!
                   G  C  D
Na glória de Deus Pai. Amém!
exibições 711.557

0 comentários

mostrar mais comentários

Conseguiu tocar?

58 tocaram 11 ainda não

Grave um vídeo tocando Glória a Deus Nas Alturas e mande pra gente!

00:00 / 00:00
outros vídeos desta música
repetir qualidade Automático
Outros vídeos desta música
00:00 / 00:00
Automático
OK