Cifra Club

Glória a Deus Nas Alturas

Eliana Ribeiro

Cifra: Principal (violão e guitarra)
tom: D
[Intro] D9  C9  D9  C9  D9  C9

   D9                  C9
E|---------0---------0---------0---------0--|
B|-----3---------3---------3---------3------|
G|---2---2-----2---2-----0---0-----0---0----|
D|-0---------0------------------------------|
A|---------------------3---------3----------|
E|------------------------------------------|

   D9                        C9
E|------------------------------------------|
B|------------------------------------------|
G|-14-14-14-14--12-11-12-11--9-9-7-9--------|
D|------------------------------------------|
A|-12-12-12-12--10-9--10-9---7-7-5-7--------|
E|------------------------------------------|

   D9                        C9
E|------------------------------------------|
B|------------------------------------------|
G|-14-14-14-14--12-11-12-11--9-9-7-9--------|
D|------------------------------------------|
A|-12-12-12-12--10-9--10-9---7-7-5-7--------|
E|------------------------------------------|

[Primeira Parte]

  D9                 C9
Glória a Deus nas alturas
   G6
E paz na Terra
                     D9
Aos homens por Ele amados
              C9
Senhor Deus, rei dos céus
 G6                D9
Deus Pai Todo Poderoso

            Am  D9
Nós vos louva__mos
              Am  D9
Nós vos bendize__mos
            Am  D9
Nós vos adora__mos
                Am  D9
Nós vos glorifica__mos
                C9
Nós vos damos graças
     G6            D9
Por vossa imensa glória

[Segunda Parte]

               C9
Senhor Jesus Cristo
 G6       D9
Filho Unigênito
                 C9
Senhor Deus, Cordeiro de Deus
 G6            D9
Filho de Deus Pai

 Am                  G
Vós, que tirais o pecado do mundo
 C9               D9
Tende piedade de nós
 Am                  G
Vós, que tirais o pecado do mundo
C9               D9
Acolhei a nossa súplica
 Am                  G
Vós, que estais à direita do Pai
 C9               D9
Tende piedade de nós

               Am  D9
Só vós sois o Sa_nto
              Am  D9
Só vós, o Senhor
             C9              D9
Só vós, o Altíssimo, Jesus Cristo
 E              A
Com o Espírito Santo

                   G    D9
Na glória de Deus Pai amém!
                   G    D9
Na glória de Deus Pai amém!
                   G    D9
Na glória de Deus Pai amém!
                   G    D9
Na glória de Deus Pai amém!
Composição de Fábio Roniel
879.667 exibições
    • ½ Tom
    • A
    • Bb
    • B
    • C
    • Db
    • D
    • Eb
    • E
    • F
    • F#
    • G
    • Ab
  • Adicionar à lista

    0 comentários

    Ver todos os comentários
    00:00 / 00:00
    Outros vídeos desta música
    Repetir Qualidade Automático
    Outros vídeos desta música
    00:00 / 00:00
    Automático

    Cifra Club Pro

    Aproveite o Cifra Club com benefícios exclusivos e sem anúncios
    Cifra Club Pro
    Aproveite o Cifra Club com benefícios exclusivos e sem anúncios
    OK