Cifra Club

Livre Acesso

Eliana Ribeiro

Cifra: Principal
exibições 233.539
Tom: G
Intro: G9  D/G  Am  Cm  G9  D/G  Am  Cm


E|------10-10-------10-10-------------------10-12-11-|
B|-/12--------12-10---------10-12-13--13-------------|
G|---------------------------------------------------|
D|---------------------------------------------------|


E|------10-10-------10-10-----------------10-12-11--|
B|-/12--------12-10---------10-12-13--13------------|
G|--------------------------------------------------|
D|--------------------------------------------------|


   G9                    D/G
Eu abro as portas do meu coração,
   Am                  D    D/F#
Te dou livre acesso Senhor.
   G9                     D/G
Eu abro as portas do meu coração,
   Am     Am/G              D
Te dou....          livre acesso.

   G9                    D/G
Eu abro as portas do meu coração,
   Am                  D    D/F#
Te dou livre acesso Senhor.
   G9                     D/G
Eu abro as portas do meu coração,
   Am     Am/G              D
Te dou....          livre acesso.

C           D         Em   C     D        Em
  Pois com teu braço forte   realizas  prodígios,
C           D           G    D/F#  Em   Am      Am/G        D
  Pois com teu braço   forte Senhor      Me ergues do  chão.

C           D         Em   C    D        Em
  Pois com teu braço forte   realizas prodígios,
C          D           G     D/F# Em   Am        D          G
  Pois com teu braço   Forte Senhor       me ergues do  chão.

(Intro)

(Repete Toda a Música)

(Intro)
Acordes para:

    0 comentários

      mostrar mais comentários

      Conseguiu tocar?

      9tocaram1ainda não

      Grave um vídeo tocando Livre Acesso e mande pra gente!

      00:00 / 00:00
      outros vídeos desta música
      repetirqualidadeautomática
      Outro vídeos desta música
        00:00 / 00:00
        automática
        OK