Cifra Club

Cold and All Alone

Mxpx

Cifra: Versão 4 (violão e guitarra)
Selo Cifra Club: esta cifra foi revisada para atender aos critérios oficiais da nossa Equipe de Qualidade.
tom: Bm
Intro: Let each chord ring, Play Intro 2 times 
E|-------------------------------------------------------------------| I
B|-------------------------------------------------------------------| I
G|------------------------------------7------------------------------| I
D|----7---------2----------4----------7-----------------------------| I
A|----7---------2----------4----------5------------------------------| I
E|----5---------0----------2-----------------------------------------| I

Then pick slide and go into this riff: 
E|---------------------------------------------------------------| I
B|---------------------------------------------------------------| I
G|---------------------7-7-7-7-7-7-------------------------------| I
D|-----4-4-4-4-4-4-----7-7-7-7-7-7-----7-7-7-7-7-7---6-6-6-6-6---| I
A|-----4-4-4-4-4-4-----5-5-5-5-5-5-----7-7-7-7-7-7---6-6-6-6-6---| I
E|-----2-2-2-2-2-2---------------------5-5-5-5-5-5---4-4-4-4-4---| I

E|----------------------------------------------------------------| I
B|----------------------------------------------------------------| I
G|---------------------7-7-7-7-7-7--------------------------------| I
D|-----4-4-4-4-4-4-----7-7-7-7-7-7-----7-7-7-7-7-7---6-6-6---2-2-2| I
A|-----4-4-4-4-4-4-----5-5-5-5-5-5-----7-7-7-7-7-7---6-6-6---0-0-0| I
E|-----2-2-2-2-2-2---------------------5-5-5-5-5-5---4-4-4---0-0-0| I

cont. 
E|-------------------------------------------------------------------| I
B|-------------------------------------------------------------------| I
G|-------------------------------------------------------------------| I
D|-----4-4-4-4-4-4-----7-7-7-7-7-7-----2-2-2-2-2-2-2-2-2-2-2---------| I
A|-----4-4-4-4-4-4-----7-7-7-7-7-7-----2-2-2-2-2-2-2-2-2-2-2---------| I
E|-----2-2-2-2-2-2-----5-5-5-5-5-5-----0-0-0-0-0-0-0-0-0-0-0---------| I

Verse riff: Play 2 times 
E|-------------------------------------------------------------------| I
B|-------------------------------------------------------------------| I
G|-----------------------------------------------------7-7-7-7-7-7---| I
D|-----7-7-7-7-7-7-----2-2-2-2-2-2-----4-4-4-4-4-4-----7-7-7-7-7-7---| I
A|-----7-7-7-7-7-7-----2-2-2-2-2-2-----4-4-4-4-4-4-----5-5-5-5-5-5---| I
E|-----5-5-5-5-5-5-----0-0-0-0-0-0-----2-2-2-2-2-2-------------------| I

Bridge: "I've dug down far too deep now" 
E|-------------------------------------------------------------------| I
B|-------------------------------------------------------------------| I
G|--------------------------------7-7-7-7-7-7-7-7-7-7----------------| I
D|-----4-4-4-4-4-4-4-4-4-4--------7-7-7-7-7-7-7-7-7-7----------------| I
A|-----4-4-4-4-4-4-4-4-4-4--------5-5-5-5-5-5-5-5-5-5----------------| I
E|-----2-2-2-2-2-2-2-2-2-2-------------------------------------------| I

cont.: "I've dug down deep far I'm losing sleep" 
E|-------------------------------------------------------------------| I
B|-------------------------------------------------------------------| I
G|------------------------------7-7-7-7-7----------------------------| I
D|-----4-4-4-4-4-4-4-4-4-4------7-7-7-7-7-----2-2-2-2-2--------------| I
A|-----4-4-4-4-4-4-4-4-4-4------5-5-5-5-5-----2-2-2-2-2--------------| I
E|-----2-2-2-2-2-2-2-2-2-2--------------------0-0-0-0-0--------------| I

Then play this once: 
E|-------------------------------------------------------------------| I
B|-------------------------------------------------------------------| I
G|-------------------------------------7-7-7-7-7-7-7-7-7-7-----------| I
D|----7-7-7---6-6-6---4-4-4---2-2-2----7-7-7-7-7-7-7-7-7-7---------2-| I
A|----7-7-7---6-6-6---4-4-4---2-2-2----5-5-5-5-5-5-5-5-5-5---------2-| I
E|----5-5-5---4-4-4---2-2-2---0-0-0--------------------------------0-| I

Now play verse riff again 2x 
Then Bridge 
Then play Chorus 4 times : "Cold and all alone...." 
E|------------------------------------------------------------------------------------| I
B|------------------------------------------------------------------------------------| I
G|-----------------------7-/-6-/-7-/-6-/-7-/-6-/-7-/-6------------------------------9-| I
D|----7------------------7-/-6-/-7-/-6-/-7-/-6-/-7-/-6---o| n 4th time end strum on---9-I
A|----7--| let this ring---5-/-4-/-5-/-4-/-5-/-4-/-5-/-4------------------------------7-I
E|----5-------------------------------------------------------------------------------| I

Then play Bridge again 
Then play this 2 times : 
E|---------------------------------------------------------------------------| I
B|---------------------------------------------------------------------------| I
G|---------------------------------7-7-7-7-7---------------------------------| I
D|----7-7----6-6----4-4----2-2-----7-7-7-7-7---------2-2-2-2-2---------------| I
A|----7-7----6-6----4-4----2-2-----5-5-5-5-5---------2-2-2-2-2---------------| I
E|----5-5----4-4----2-2----0-0-----------------------0-0-0-0-0---------------| I
.....(palm muted)................ 

then finally (x = palm mute) : 
E|---------------------------------------------------------------------------| I
B|---------------------------------------------------------------------------| I
G|---------------------------------------7----4----6-------------------------| I
D|-----x-x-7---x-x-6---x-x-4---x-x-2-----7----4----6----2----7---------------| I
A|-----x-x-7---x-x-6---x-x-4---x-x-2-----5----2----4----2----7..| let this ringI
E|-----x-x-5---x-x-4---x-x-2---x-x-0--------------------0----5---------------| I
Outros vídeos desta música
    0 exibições
      • ½ Tom
      • Am
      • Bbm
      • Bm
      • Cm
      • C#m
      • Dm
      • Ebm
      • Em
      • Fm
      • F#m
      • Gm
      • G#m
    • Adicionar à lista

    Afinação da cifra

    Afinador online

      0 comentários

      Ver todos os comentários

      Entre para o Cifra Club PRO

      Tenha acesso a benefícios exclusivos no App e no Site

      • Chega de anúncios

      • Badges exclusivas

      • Mais recursos no app do Afinador

      • Atendimento Prioritário

      • Aumente seu limite de lista

      • Ajude a produzir mais conteúdo

      Cifra Club Pro

      Aproveite o Cifra Club com benefícios exclusivos e sem anúncios
      Cifra Club Pro
      Aproveite o Cifra Club com benefícios exclusivos e sem anúncios
      Ops (: Contenido disponible sólo en portugués.
      OK