Cifra Club

Por Onde Andei

Nando Reis

Cifra: Academy-violao (violão e guitarra)
Selo Cifra Club: esta cifra foi revisada para atender aos critérios oficiais da nossa Equipe de Qualidade.
tom: C
[Intro] C  G  Dm  F
        C  G  Dm  F

[Tab - Solo Intro]

   C
E|------------------------------------------|
B|------------------------------------------|
G|-------0----------------------------------|
D|---0h2---2--------------------------------|
A|-3----------3-3-3-------------------------|
E|------------------------------------------|

   G
E|------------------------------------------|
B|------------------------------------------|
G|------------------------------------------|
D|-------0----------------------------------|
A|---0h2---2--------------------------------|
E|-3----------3-3-3-------------------------|

   Dm
E|------------------------------------------|
B|------------------------------------------|
G|-----0------------------------------------|
D|---3----3---------------------------------|
A|-5---------5-5-5--------------------------|
E|------------------------------------------|

   F
E|------------------------------------------|
B|------------------------------------------|
G|-----0------------------------------------|
D|---3----3---------------------------------|
A|-3--------3-3-3---------------------------|
E|------------------------------------------|

   C
E|------------------------------------------|
B|------------------------------------------|
G|-------0----------------------------------|
D|---0h2---2--------------------------------|
A|-3----------3-3-3-------------------------|
E|------------------------------------------|

   G
E|------------------------------------------|
B|------------------------------------------|
G|------------------------------------------|
D|-------0----------------------------------|
A|---0h2---2--------------------------------|
E|-3----------3-3-3-------------------------|

   Dm               F 
E|------------------1-----------------------|
B|------------------1-----------------------|
G|-----0------------2-----------------------|
D|---3----3---------3-----------------------|
A|-5---------5-5-5--3-----------------------|
E|------------------1-----------------------|

[Primeira Parte] 

            C
Desculpe estou um pouco atrasado
       G
Mas espero que ainda de tempo
      Dm                          F
De dizer que andei errado e eu entendo
          C
As suas queixas tão justificáveis
            G
E a falta que eu fiz nessa semana
 Dm                            
Coisas que pareceriam óbvias 
  F
Até pra uma criança

[Refrão] 

    C
Por onde andei
            G
Enquanto você me procurava
   Bb                     F
Será que eu sei que você mesmo é tudo
                  C    G  Dm  F
Aquilo que me faltava?

[Segunda Parte] 

         C
Amor eu sinto a sua falta
             G
E a falta é morte da esperança
        Dm
Como o dia em que roubaram o seu carro
    F
Deixou uma lembrança
              C
Que a vida é mesmo coisa muito frágil
       G
Uma bobagem uma irrelevância
  Dm                      F
Diante da eternidade do amor

De quem se ama

[Refrão] 

    C
Por onde andei
            G
Enquanto você me procurava
        Bb         
E o que eu te dei
           F
Foi muito pouco ou quase nada
      C        
E que eu deixei
         G
Algumas roupas penduradas
   Bb                       F
Será que eu sei que você é mesmo 
                       C    G  Dm  F
Tudo aquilo que me faltava?

( C  G  Dm  F )

[Segunda Parte] 

         C
Amor eu sinto a sua falta
             G
E a falta é morte da esperança
        Dm
Como o dia em que roubaram o seu carro
    F
Deixou uma lembrança
              C
Que a vida é mesmo coisa muito frágil
       G
Uma bobagem uma irrelevância
  Dm                      F
Diante da eternidade do amor

De quem se ama

[Refrão] 

    C
Por onde andei
            G
Enquanto você me procurava
        Bb         
E o que eu te dei
           F
Foi muito pouco ou quase nada
      C        
E que eu deixei
         G
Algumas roupas penduradas
   Bb                       F
Será que eu sei que você é mesmo 
                       C    G  Dm  F
Tudo aquilo que me faltava?

( C  G  Dm  F )

    C
Por onde andei
            G
Enquanto você me procurava
        Bb         
E o que eu te dei
           F
Foi muito pouco ou quase nada
      C        
E que eu deixei
         G
Algumas roupas penduradas
   Bb                       F
Será que eu sei que você é mesmo 
                       C    G  Dm  F
Tudo aquilo que me faltava?

[Final] C  G  Dm  F  C
Outros vídeos desta música
    4.878 exibições
    • Simplificar cifra
      • ½ Tom
      • A
      • Bb
      • B
      • C
      • Db
      • D
      • Eb
      • E
      • F
      • F#
      • G
      • Ab
    • Adicionar à lista

    Afinação da cifra

    Afinador online

      0 comentários

      Ver todos os comentários

      Entre para o Cifra Club PRO

      Tenha acesso a benefícios exclusivos no App e no Site

      • Chega de anúncios

      • Badges exclusivas

      • Mais recursos no app do Afinador

      • Atendimento Prioritário

      • Aumente seu limite de lista

      • Ajude a produzir mais conteúdo

      Capítulos
      • Início
      • Tocando a música
      • Acordes da música
      • Tocando Introdução e Primeira Parte
      • Ensinando Ritmo da música
      • Tocando Refrão
      • Ensinando Ritmo do Refrão
      • Encerramento

      Cifra Club Pro

      Aproveite o Cifra Club com benefícios exclusivos e sem anúncios
      Cifra Club Pro
      Aproveite o Cifra Club com benefícios exclusivos e sem anúncios
      Ops (: Contenido disponible sólo en portugués.
      OK