Cifra Club

Que digan lo que quieran

Natalia Oreiro

Cifra: Principal (violão e guitarra)
tom: A
  A          B    D    E
 -0-   -5-  -2-  -5-  -0-
 -2-   -5-  -4-  -7-  -0-
 -2- o -6-  -4-  -7-  -1-
 -2-   -7-  -4-  -7-  -2-
 -0-   -7-  -2-  -5-  -2-
 ---   -5-  ---  ---  -0-

INTRO
E|-------------------------------------------|
B|-------------------------------------------|
G|------2---1--------2-----1-----1-2---------|
D|--2-2---2---2--2-2---2-2---2-2-------------|
A|-------------------------------------------|
E|-------------------------------------------|

E|-------------------------------------------|
B|-------------------------------------------|
G|------2---1--------2-----1-----1-2---------|
D|-------------------------------------------|
A|--2-2---2---2--2-2---2-2---2-2-------------|
E|-------------------------------------------|

E|-------------------------------------------|
B|-------------------------------------------|
G|------2---1--------2-----1-----1-2---------|
D|--0-0---0---0--0-0---0-0---0-0-------------|
A|-------------------------------------------|
E|-------------------------------------------|

E|-------------------------------------------|
B|-------------------------------------------|
G|------2---1--------2-----1-----1-2---------|
D|-------------------------------------------|
A|--0-0---0---0--0-0---0-0---0-0-------------|
E|-------------------------------------------|


                  E
No soy mejor que vos
             B
y no seré perfecta
           D
A medio camino por andar
               A
cayendo y volviéndome a parar.
              E
Aprendo del error
                 B
y creo que el destino
                D
se escribe con gotas de sudor
                A          B
No temo a la herida ni al dolor.


                A
Y ahora sé muy bien
               B
a donde va la vida
            D
Y no hay mentira que me engañe
          A          B
Y a nada vendo la razón

                      E
Que digan lo que quieran
                   B
Que las palabras vienen y se van
               D
Y yo soy como soy en realidad
                     A
Quiero vivir a mi manera.
     B
Ohh ohh
                    E
Que digan lo que quieran
                 B
Yo tengo ya mi brújula interior

Me importa
        D
lo que dice el corazón.
                      A     B
Y sé muy bien a donde voy


ESTRIBILLO
E|-------------------------------------------|
B|-------------------------------------------|
G|------2---1--------2-----1-----1-2---------|
D|--2-2---2---2--2-2---2-2---2-2-------------|
A|-------------------------------------------|
E|-------------------------------------------|

E|-------------------------------------------|
B|-------------------------------------------|
G|------2---1--------2-----1-----1-2---------|
D|-------------------------------------------|
A|--2-2---2---2--2-2---2-2---2-2-------------|
E|-------------------------------------------|

E|-------------------------------------------|
B|-------------------------------------------|
G|------2---1--------2-----1-----1-2---------|
D|--0-0---0---0--0-0---0-0---0-0-------------|
A|-------------------------------------------|
E|-------------------------------------------|

E|-------------------------------------------|
B|-------------------------------------------|
G|------1---2--------------1---2-------------|
D|-------------------------------------------|
A|--0-0---0---0--0-0---2-2---0---2-2--2------|
E|-------------------------------------------|
00:00 / 00:00
Outros vídeos desta música
Repetir
Outros vídeos desta música
Composição de Kike Santander
67 exibições
    • ½ Tom
    • A
    • Bb
    • B
    • C
    • Db
    • D
    • Eb
    • E
    • F
    • F#
    • G
    • Ab
  • Adicionar à lista

    0 comentários

    Ver todos os comentários

    Conseguiu tocar?

    0 Tocaram 0 Ainda não

    Grave um vídeo tocando Que digan lo que quieran e nos envie!

    Entre para oCifra Club PRO

    Tenha acesso a benefícios exclusivos no App e no Site

    • Chega de anúncios

    • Prioridade de compra em lançamentos

    • Mais recursos no app do Afinador

    • Atendimento Prioritário

    • Descontos nos produtos Cifra Club

    • Ajude a produzir mais conteúdo

    00:00 / 00:00

    Cifra Club Pro

    Aproveite o Cifra Club com benefícios exclusivos e sem anúncios
    Cifra Club Pro
    Aproveite o Cifra Club com benefícios exclusivos e sem anúncios
    OK