Cifra Club

Aprenda

Dont Worry About It

N.E.R.D.

Cifra: Versão 2 (violão e guitarra)
tom: C
Tabbed by: Jason Toothaker
Email: J*

Tuning:
Main Riff (parenthesized notes are played only in live version)
e|--------------------------------------------------------------------------|
B|--------------------------------------------------------------------------|
G|--------------------------------------------------------------------------|
D|(4)--(4)(4)--(4)(4)---(4)--(4)(4)--(4)(4)---------------------------------|
A|--------------------------------------------------------------------------|
E|-2----2--2----2--2-----2----2--2----2--2----------------------------------|

This is the fill that comes in a couple times in the verses
e|--------------------------------------------------------------------------|
B|--5p3-5/(6)-7-------------------------------------------------------------|
G|--------------------------------------------------------------------------|
D|--------------------------------------------------------------------------|
A|--------------------------------------------------------------------------|
E|--------------------------------------------------------------------------|

Kick ass riff (Correct Version.. Finally)
e|--------------------------------------------------------------------------|
B|-12b(13)-12-10~~~~~~-------------------12b(13)-12-10~~~~------------------|
G|---------------------11p9----11~~-----------------------11----9h11~~~~~~--|
D|--------------------------11-------------------------------11-------------|
A|--------------------------------------------------------------------------|
E|--------------------------------------------------------------------------|

e|--------------------------------------------------------------------------|
B|-12b(13)-12-10~~~~~~------------------------------------------------------|
G|---------------------11p9---9h11~~~~~~~~----------------------------------|
D|--------------------------11----------------------------------------------|
A|--------------------------------------------------------------------------|
E|--------------------------------------------------------------------------|

After 2nd "Don't worry 'bout it" ... 

        Ooohhhhhhhhhhhhhhooooohhhhhaaaaaaaaaaaaaaaaaaaaaaaaaaaaaaaaaaaaaa"
e|--------------------------------------------------------------------------|
B|--------------------------------------------------------------------------|
G|-------1010101010101010----------12121212-7-7-7-7-7-7-7-7-7-7-7-7-7-7-7---|
D|-------1010101010101010-10101010-12121212-7-7-7-7-7-7-7-7-7-7-7-7-7-7-7---|
A|--------8-8-8-8-8-8-8-8-10101010-10101010-5-5-5-5-5-5-5-5-5-5-5-5-5-5-5---|
E|-------------------------8-8-8-8------------------------------------------|

(Timing)  1+2+3+4+5+6+7+8  1+2+3+4  1+2+3+4 1+2+3+4+5+6+7+8+1+2+3+4+5+6+8 

I welcome comments and critiques

Jason @ *
Composição de Chad Hugo / Pharrell Williams
54 exibições
    • ½ Tom
    • A
    • Bb
    • B
    • C
    • Db
    • D
    • Eb
    • E
    • F
    • F#
    • G
    • Ab
  • Adicionar à lista

    0 comentários

    Ver todos os comentários

    Conseguiu tocar?

    0 Tocaram 0 Ainda não

    Grave um vídeo tocando Dont Worry About It e nos envie!

    00:00 / 00:00
    outros vídeos desta música
    repetir qualidade Automático
    Outros vídeos desta música
    00:00 / 00:00
    Automático

    Cifra Club Pro

    Aproveite o Cifra Club com benefícios exclusivos e sem anúncios
    Cifra Club Pro
    Aproveite o Cifra Club com benefícios exclusivos e sem anúncios
    OK