Cifra Club

The Perfect Kiss

New Order

Cifra: Principal (violão e guitarra)
tom: G
(Logo depois do baixo uns 0:21 até 0:28)
E|-12---12---12---12---|-----------------|
B|-13---13---13---13---|-5-----6---6-----|
G|-14---14---14---14---|-5-----5---5-----|
D|---------------------|-7-----7---7-----|
A|---------------------|-----------------|
D|---------------------|-----------------|

(Aqui ele começa a cantar)
(é também o refrão)
E|-----------------|------------------------|-----------------|-12----13--13----|-10----12--12----|
B|-3-----5---5-----|-1---1----1----1----1---|-1----5----3-----|-13----13--13----|-12----12--12----|
G|-4-----4---4-----|-2---2----2----2----2---|-2----5----4-----|-14----14--14----|-12----12--12----|
D|-5-----5---5-----|-3---3----3----3----3---|-3----7----5-----|-----------------|-----------------|
A|-----------------|------------------------|-----------------|-----------------|-----------------|
D|-----------------|------------------------|-----------------|-----------------|-----------------|

E|-8---8----8----8----8---|-8----12---10----|
B|-10--10---10---10---10--|-10---13---12----|
G|-10--10---10---10---10--|-10---14---12----|
D|------------------------|-----------------|
A|------------------------|-----------------|
D|------------------------|-----------------|

(solo)

E|-----------------|-----------------|------------------------|-----------------|
B|-5-----6---6-----|-3-----5---5-----|-1---1----1----1----1---|-1----5----3-----|
G|-5-----5---5-----|-4-----4---4-----|-2---2----2----2----2---|-2----5----4-----|
D|-7-----7---7-----|-5-----5---5-----|-3---3----3----3----3---|-3----7----5-----|
A|-----------------|-----------------|------------------------|-----------------|
D|-----------------|-----------------|------------------------|-----------------|

E|-12----13--13----|-10----12--12----|-8---8----8----8----8---|-8----12---10----|
B|-13----13--13----|-12----12--12----|-10--10---10---10---10--|-10---13---12----|
G|-14----14--14----|-12----12--12----|-10--10---10---10---10--|-10---14---12----|
D|-----------------|-----------------|------------------------|-----------------|
A|-----------------|-----------------|------------------------|-----------------|
D|-----------------|-----------------|------------------------|-----------------|

E|-----------------|
B|-5-----6---6-----|
G|-5-----5---5-----|
D|-7-----7---7-----|
A|-----------------|
D|-----------------|

(refrão)
E|-----------------|------------------------|-----------------|-12----13--13----|-10----12--12----|
B|-3-----5---5-----|-1---1----1----1----1---|-1----5----3-----|-13----13--13----|-12----12--12----|
G|-4-----4---4-----|-2---2----2----2----2---|-2----5----4-----|-14----14--14----|-12----12--12----|
D|-5-----5---5-----|-3---3----3----3----3---|-3----7----5-----|-----------------|-----------------|
A|-----------------|------------------------|-----------------|-----------------|-----------------|
D|-----------------|------------------------|-----------------|-----------------|-----------------|

E|-8---8----8----8----8---|-8----12---10----|
B|-10--10---10---10---10--|-10---13---12----|
G|-10--10---10---10---10--|-10---14---12----|
D|------------------------|-----------------|
A|------------------------|-----------------|
D|------------------------|-----------------|

(solo junto com o teclado)
E|-----------------|-----------------|------------------------|-----------------|
B|-5-----6---6-----|-3-----5---5-----|-1---1----1----1----1---|-1----5----3-----|
G|-5-----5---5-----|-4-----4---4-----|-2---2----2----2----2---|-2----5----4-----|
D|-7-----7---7-----|-5-----5---5-----|-3---3----3----3----3---|-3----7----5-----|
A|-----------------|-----------------|------------------------|-----------------|
D|-----------------|-----------------|------------------------|-----------------|

E|-12----13--13----|-10----12--12----|-8---8----8----8----8---|-8----12---10----|
B|-13----13--13----|-12----12--12----|-10--10---10---10---10--|-10---13---12----|
G|-14----14--14----|-12----12--12----|-10--10---10---10---10--|-10---14---12----|
D|-----------------|-----------------|------------------------|-----------------|
A|-----------------|-----------------|------------------------|-----------------|
D|-----------------|-----------------|------------------------|-----------------|

E|-12----10----|-8-----10--10---8----|
B|-13----12----|-10----12--12---10---|
G|-14----12----|-10----12--12---10---|
D|-------------|---------------------|
A|-------------|---------------------|
D|-------------|---------------------|

E|-12----10--10----|-12----10--10----|-12----10----|-8-----10--10---8----|-12----10--10----|
B|-13----12--12----|-13----12--12----|-13----12----|-10----12--12---10---|-13----12--12----|
G|-14----12--12----|-14----12--12----|-14----12----|-10----12--12---10---|-14----12--12----|
D|-----------------|-----------------|-------------|---------------------|-----------------|
A|-----------------|-----------------|-------------|---------------------|-----------------|
D|-----------------|-----------------|-------------|---------------------|-----------------|

E|-12----10--10----|-12----13--13----|-10----12--12----|-8---8----8----8----8---|-8----12---10----|
B|-13----12--12----|-13----13--13----|-12----12--12----|-10--10---10---10---10--|-10---13---12----|
G|-14----12--12----|-14----14--14----|-12----12--12----|-10--10---10---10---10--|-10---14---12----|
D|-----------------|-----------------|-----------------|------------------------|-----------------|
A|-----------------|-----------------|-----------------|------------------------|-----------------|
D|-----------------|-----------------|-----------------|------------------------|-----------------|

E|-12----10----|-8-----10--10---8----|-12----10--10----|-12----10--10----|-12-----|
B|-13----12----|-10----12--12---10---|-13----12--12----|-13----12--12----|-13-----|
G|-14----12----|-10----12--12---10---|-14----12--12----|-14----12--12----|-14-----|
D|-------------|---------------------|-----------------|-----------------|--------|
A|-------------|---------------------|-----------------|-----------------|--------|
D|-------------|---------------------|-----------------|-----------------|--------|

(final)
E|-12-----|-12-----|-12-----|-12-----|-12-----|-12-----|-12-----|-7--------7---7-------7-------|
B|-13-----|-13-----|-13-----|-13-----|-13-----|-13-----|-13-----|-10---8---10--10--8---10--8---|
G|-14-----|-14-----|-14-----|-14-----|-14-----|-14-----|-14-----|------------------------------|
D|--------|--------|--------|--------|--------|--------|--------|------------------------------|
A|--------|--------|--------|--------|--------|--------|--------|------------------------------|
D|--------|--------|--------|--------|--------|--------|--------|------------------------------|

E|-8--------8---8-------8-------|-10-------10--10------10------|-12-------12--12------12------|
B|-12---10--12--12--10--12--10--|-13---12--13--13--12--13--12--|-15---13--15--15--13--15--13--|
G|------------------------------|------------------------------|------------------------------|
D|------------------------------|------------------------------|------------------------------|
A|------------------------------|------------------------------|------------------------------|
D|------------------------------|------------------------------|------------------------------|
Composição de Bernard Sumner / Gillian Gilbert / Peter Hook / Stephen Morris
Colaboração e revisão:
  • Ana Miranda
3.427 exibições
    • ½ Tom
    • A
    • Bb
    • B
    • C
    • Db
    • D
    • Eb
    • E
    • F
    • F#
    • G
    • Ab
  • Adicionar à lista

    0 comentários

    Ver todos os comentários

    Conseguiu tocar?

    1 Tocaram 0 Ainda não

    Grave um vídeo tocando The Perfect Kiss e nos envie!

    00:00 / 00:00
    Outros vídeos desta música
    Repetir Qualidade Automático
    Outros vídeos desta música
    00:00 / 00:00
    Automático

    Cifra Club Pro

    Aproveite o Cifra Club com benefícios exclusivos e sem anúncios
    Cifra Club Pro
    Aproveite o Cifra Club com benefícios exclusivos e sem anúncios
    OK