Cifra Club

Crying Like a Church On a Monday

New Radicals

Cifra: Principal (violão e guitarra)
Selo Cifra Club: esta cifra foi revisada para atender aos critérios oficiais da nossa Equipe de Qualidade.
tom: Eb (forma dos acordes no tom de D) Capotraste na 1ª casa
Intro 2x: G  D 

Verso:

      D
I was dancing
           Em
With your shadow
G                 D
Slow down memories hall
        D                  Em
I said wait, 'I've been seduced and forgotten'
          G              D
You said "Baby haven't we all"

Ponte:

      D                 Em
Now I don't like crying
        G           D
'Cos it only gets me wet
       D                 Em
But I can't help failing
      F#m       Bm
To remember to forget you
         G
'cos I know it's gonna be a long time

Refrão:

        D             G
Now I'm crying like a church on Monday
D                 G
Praying for these feelings to go away
    A
So do me a favor baby
Em
Put down your new god
    G                        D Em G D
And love me like Sunday again

(same as verse above)
I was hiding in your bedroom 
When I saw him come inside 
I can't live in his shadow 
Is that where I'm dancing untill I die 

NoW I don't light candles 
Because they make me see the light 
That I can't help failing 
To remember to forget you 
And I know it's gonna be a long time 

(Refrão)

Solo:

E|----------------------------------------------------------------|
B|------------------------------------------------------------16~-|
G|--------12~----12b—8~----------8~----12b—10—8—8~-----12/15------|
D|---/11-------------------11\9-----------------------------------|
A|----------------------------------------------------------------|
E|----------------------------------------------------------------|

E|--------11----11--------11----11--------11----13----------------|
B|--11—13----13-----11-13----13-----11-13----13----13~------------|
G|----------------------------------------------------------------|
D|----------------------------------------------------------------|
A|----------------------------------------------------------------|
E|----------------------------------------------------------------|

E|----------------------------------------------------------------|
B|--------------------------------------16~-----------------------|
G|--12b—12b—12b--8~---------8~----12/15---------------------------|
D|---------------------11\9---------------------------------------|
A|----------------------------------------------------------------|
E|----------------------------------------------------------------|
Outros vídeos desta música
    2.391 exibições
      • ½ Tom
      • A
      • Bb
      • B
      • C
      • Db
      • D
      • Eb
      • E
      • F
      • F#
      • G
      • Ab
    • Adicionar à lista

    Afinação da cifra

    Afinador online

      0 comentários

      Ver todos os comentários

      Entre para o Cifra Club PRO

      Tenha acesso a benefícios exclusivos no App e no Site

      • Chega de anúncios

      • Badges exclusivas

      • Mais recursos no app do Afinador

      • Atendimento Prioritário

      • Aumente seu limite de lista

      • Ajude a produzir mais conteúdo

      Cifra Club Pro

      Aproveite o Cifra Club com benefícios exclusivos e sem anúncios
      Cifra Club Pro
      Aproveite o Cifra Club com benefícios exclusivos e sem anúncios
      OK