Cifra Club

Free Ride

Nick Drake

Cifra: Principal (violão e guitarra)
tom: F
(afinação - cgcfce)

(Parte 1)
                                                           hammer on
E|-|-----------------------------------------------------------------|
C|-|-----------------------------------------------------------------|
F|-|-----2-----------5-----------4-----------0-------0-------0-h-2---|
C|-|-----0----(0)----0----(0)----0----(0)----0-------0-------0-------|
G|-|-----------------------------------------------------------------|
C|-|-0---0---0---0---0---0---0---0---0---0---0---0---0---0---0---0---|

(parte 2)
    as notas em parentese só são tocadas perto do fim

E|-|-(1)-(0)-----(1)-(0)-----(0)-(1)-(0)-----(0)------------------|
C|-|--_____--(2)--_____--(2)------_____--(2)----------------------|
F|-|--3-p-2---0---3-p-2---0---2---3-p-2---0---2-----------2-------|
C|-|--0-----------0-----------0---0-------0---0-------0-----------|
G|-|--------------------------------------------------------------|
C|-|--0-------0---0-------0---0---0-------0---0---0-----------0---|

(parte 3)
E|-|-----------------------------------------------------------------|
C|-|---------_____---------------------------_____-------------------|
F|-|---------9-p-7---9---9-------------------7-p-5---7---7-----------|
C|-|-----7---7-------7---7---7-----------5---5-------5---5---5-------|
G|-|-----------------------------7-------------------------------5---|
C|-|-7-------------------------------5-------------------------------|

(Parte 4)
E|-|-----------------------------------------------------------------|
C|-|-----------------------------------------------------------------|
F|-|---------3-------2---------------3---0-------2---------------2---|
C|-|-----0---0---0---0---0-------0-----------0-------0-------0-------|
G|-|-----------------------------------------------------------------|
C|-|-0-----------------------0-------0---0-------0-------0-----------|

(parte 5 - solo)
E|-|-------------------------------------------------------------|
C|-|-------------------------------------------------------------|
F|-|-0-------5---7-------7-----------5---3-------2---------------|
C|-|-----0-------------------5-------3-------3---0---0-------0---|
G|-|-------------------------------------------------------------|
C|-|---------5-------5---5-------5---3---3-------0-------0-------|

(intro)
I*3, ii*2, iii, iv*2

(verse)
I     i know you
I     care too
I     i see through
Ii    all of the pictures that you keep on the wall
Ii    all of the people that will come to the ball

(chorus)
Iii   but hear me calling, won't you give me
Iv    a free ride
Iii   hear me calling, won't you give me
Iv    a free ride
iv

(verse 2)
I     i know too
I     what you do
I     when you're through
Ii    counting the cattle as they go by the door
Ii    keeping a carpet that's so thick on the floor

(chorus)

(solo)
V*3, ii*2

(repeat verse 1)
(chorus)

iv*2.
I*3, means play part i three times, etc.
Composição de Nick Drake
Colaboração e revisão:
  • Luiz Bastos
1.385 exibições
    • ½ Tom
    • A
    • Bb
    • B
    • C
    • Db
    • D
    • Eb
    • E
    • F
    • F#
    • G
    • Ab
  • Adicionar à lista

    0 comentários

    Ver todos os comentários

    Conseguiu tocar?

    0 Tocaram 0 Ainda não

    Grave um vídeo tocando Free Ride e nos envie!

    00:00 / 00:00
    Outros vídeos desta música
    Repetir Qualidade Automático
    Outros vídeos desta música
    00:00 / 00:00
    Automático

    Cifra Club Pro

    Aproveite o Cifra Club com benefícios exclusivos e sem anúncios
    Cifra Club Pro
    Aproveite o Cifra Club com benefícios exclusivos e sem anúncios
    OK