Cifra Club

Happiness In Slavery

Nine Inch Nails

Cifra: Principal (violão e guitarra)
tom: C
From: Burning.I* (Burning Inside)
Date: 25 Dec 95 01:07:41 -0500

                        from the EP "Broken"
                        words and music by Trent Reznor
                        tabbed by Tom Mallon
 
Chorus Bass Riff (at "Don't open your eyes...")
G -------------------------------------------------
D ----------------------5--3-----------------------
A -------------------------------------------------
E -1/3-3-3-4\--1/3h4p3-----------------------------
 
Guitar Riff 1 (After chorus)
        PM- - - - - - - -
E -------------------------------------------------------------------
B -------------------------------------------------------------------
G --1010----------------------------10-------------------------------
D --1010-----------------------9-9--10-------------------------------
A --8-8---8-8-8-8-8-8-8-8--6---9-9--8--------------------------------
E -----------------------------7-7-----------------------------------
 
(Note: Guitar Riff one is two guitars put together. On the album, the 
palm-muted section is played by a second guitar further back in the mix.)
 
Guitar Riff 2 (Play this really fast in second verse)
E -------------------------------------------------------------------
B -------------------------------------------------------------------
G -------------------------------------------------------------------
D -3-3-3-3-4-4-4-4-5-5-5-5-6-6-7-8-----------------------------------
A -3-3-3-3-4-4-4-4-5-5-5-5-6-6-7-8-----------------------------------
E -1-1-1-1-2-2-2-2-3-3-3-3-4-4-5-6-----------------------------------
 
Guitar Riff 3
E -------------------------------------------------------------------
B -------------------------------------------------------------------
G ---------------------5---------------------------------------------
D --3h4p3------3h4p3------4------------------------------------------
A -------------------------------------------------------------------
E -------------------------------------------------------------------
 
Synth Line in Outro 
E -------------------------------------------------------------------
B -------------------------------------------------------------------
G -------------------------------------------------------------------
D -----------------------4--3----------------------------------------
A -------------------1-----------------------------------------------
E -1h3--1h4--1h5--1--------------------------------------------------
                     ^if you can do this note as a hammer on on the 
                      sixth string, do so, because it sounds better.
                      It's kinda hard for me to stretch that far, so 
                      I do it like this.
 
(Note: this synth line appears in the left channel near the end of the song,
 when Trent is screaming "slavery." It's kinda hard to hear unless you're 
 paying attention. It's more obvious in the version that appears on "Fixed.")




Outro Guitar Riff
E -------------------------------------------------------------
B -------------------------------------------------------------
G ---10------10^-----------10----------------------------------
D ---10------8-^-----9-9---10----------------------------------
A ---8---------------9-9---8-----------------------------------
E -------------------7-7---------------------------------------

I realized I forgot to include this riff in the original tab I sent over.
--
 | Fidonet:  Burning Inside 1:273/929
 | Internet: Burning.I*
 |  Standard disclaimer: The views of this user are strictly his own.
 |  -=-=> (This address will be INVALID after March 1, 1996) 
00:00 / 00:00
Outros vídeos desta música
Repetir
Outros vídeos desta música
Composição de Trent Reznor
262 exibições
    • ½ Tom
    • A
    • Bb
    • B
    • C
    • Db
    • D
    • Eb
    • E
    • F
    • F#
    • G
    • Ab
  • Adicionar à lista

    0 comentários

    Ver todos os comentários

    Conseguiu tocar?

    0 Tocaram 0 Ainda não

    Grave um vídeo tocando Happiness In Slavery e nos envie!

    00:00 / 00:00

    Cifra Club Pro

    Aproveite o Cifra Club com benefícios exclusivos e sem anúncios
    Cifra Club Pro
    Aproveite o Cifra Club com benefícios exclusivos e sem anúncios
    OK