Cifra Club

Sweet Dreams

Marilyn Manson

Cifra: Principal
exibições 499.573
Tom: G#
Intro 2x:

  Antes de começar a cantar e depois 4x quando começa a cantar
E|-----------------------------------|
B|-----------------------------------|
G|-----------------------------------|
D|------5---6---5--------------------| A cada vez q se toca a intro se canta uma linha
A|--3-3---3---3---3-----6/8-----5/6--| da música: "Sweet dreams are made of this"
E|------------------4-4-----3-3------|            "Who am I to disagree?"

(depois de tocar a intro várias vezes)
E|---------------------------------------------------------------------------------------|
B|---------------------------------------------------------------------------------------|
G|---------------------------5-----------------------------------------------------------|
D|--6------------5-----------5-(8-vezes)-6-----------5-----------6-----------6-----------|
A|--6-(13-vezes)-5-(3-vezes)-3-----------6-(7-vezes)-5-(1-vezes)-6-(8-vezes)-6-(9-vezes)-|
E|--4------------3-----------------------4-----------3-----------4-----------5-----------|

Depois disso cai na intro com uma distorção Wah Wah
E|-----------------------------------|
B|-----------------------------------|
G|-----------------------------------|
D|------5---6---5--------------------|
A|--3-3---3---3---3-----6/8-----5/6--|
E|------------------4-4-----3-3------|

Solo:
E|------------11---------------------------------------------------------------------11-14b-----|
B|-6/11-11-13----11-13---------------------------------------------------------13-11--------13--|
G|---------------------11b13r11---------------------------------------------10------------------|
D|------------------------------10-8-10----------------------10-10-10/12/13---------------------|
A|--------------------------------------9-9-9b11-9b11-----8-------------------------------------|
E|----------------------------------------------------8-8---------------------------------------|

Intro:
E|-----------------------------------|
B|-----------------------------------|
G|-----------------------------------|
D|------5--6---5---------------------|
A|--3-3--3---3---3-----6/8-----5/6---|
E|-----------------4-4-----3-3-------|

Sweet dreams are made of this
Who am I to disagree?
Travel the world and the seven seas
Everybody´s looking for something

Some of them want to use you
Some of them want to get used by you
Some of them want to abuse you
Some of them want to be abused.

Solo Final

E|---------------|---------------|-------------------|
B|---------------|---------------|-5-----5-5-5-7b-5-5|
G|-5-----5-5-5-7b|5-----5-5-5-6b-|--8-8-8----------8-|
D|--8-8-8--------|-8-8-8---------|-------------------|
A|---------------|---------------|-------------------|
E|---------------|---------------|-------------------|

E|-8-8-10b--8-8-13b|-8-----8-8-8-10b-|-13b----|
B|--11-------11----|--11-11----------|-----7~-|
G|-----------------|-----------------|--------|
D|-----------------|-----------------|--------|
A|-----------------|-----------------|--------|
E|-----------------|-----------------|--------|

0 comentários

    mostrar mais comentários

    Conseguiu tocar?

    134tocaram4ainda não

    Grave um vídeo tocando Sweet Dreams e mande pra gente!

    00:00 / 00:00
    outros vídeos desta música
    repetirqualidadeautomática
    Outro vídeos desta música
      00:00 / 00:00
      automática
      OK