Notificações Amigos pendentes

      Marilyn Manson

      Sweet Dreams

      431.300 exibições
      Tom: G#
      Intro 2x:
      
        Antes de começar a cantar e depois 4x quando começa a cantar
      
      E|-----------------------------------|
      B|-----------------------------------|
      G|-----------------------------------|
      D|------5---6---5--------------------| A cada vez q se toca a intro se canta uma linha
      A|--3-3---3---3---3-----6/8-----5/6--| da música: "Sweet dreams are made of this"
      E|------------------4-4-----3-3------|            "Who am I to disagree?"
      
      
      (depois de tocar a intro várias vezes)
      
      E|---------------------------------------------------------------------------------------|
      B|---------------------------------------------------------------------------------------|
      G|---------------------------5-----------------------------------------------------------|
      D|--6------------5-----------5-(8-vezes)-6-----------5-----------6-----------6-----------|
      A|--6-(13-vezes)-5-(3-vezes)-3-----------6-(7-vezes)-5-(1-vezes)-6-(8-vezes)-6-(9-vezes)-|
      E|--4------------3-----------------------4-----------3-----------4-----------5-----------|
      
      
      Depois disso cai na intro com uma distorção Wah Wah
      
      E|-----------------------------------|
      B|-----------------------------------|
      G|-----------------------------------|
      D|------5---6---5--------------------|
      A|--3-3---3---3---3-----6/8-----5/6--|
      E|------------------4-4-----3-3------|
      
      
      Solo:
      
      E|------------11---------------------------------------------------------------------11-14b-----|
      B|-6/11-11-13----11-13---------------------------------------------------------13-11--------13--|
      G|---------------------11b13r11---------------------------------------------10------------------|
      D|------------------------------10-8-10----------------------10-10-10/12/13---------------------|
      A|--------------------------------------9-9-9b11-9b11-----8-------------------------------------|
      E|----------------------------------------------------8-8---------------------------------------|
      
      
      Intro:
      
      E|-----------------------------------|
      B|-----------------------------------|
      G|-----------------------------------|
      D|------5--6---5---------------------|
      A|--3-3--3---3---3-----6/8-----5/6---|
      E|-----------------4-4-----3-3-------|
      
      
      Sweet dreams are made of this
      Who am I to disagree?
      Travel the world and the seven seas
      Everybody´s looking for something
      
      Some of them want to use you
      Some of them want to get used by you
      Some of them want to abuse you
      Some of them want to be abused.
      
      Solo Final
      
      
      E|---------------|---------------|-------------------|
      B|---------------|---------------|-5-----5-5-5-7b-5-5|
      G|-5-----5-5-5-7b|5-----5-5-5-6b-|--8-8-8----------8-|
      D|--8-8-8--------|-8-8-8---------|-------------------|
      A|---------------|---------------|-------------------|
      E|---------------|---------------|-------------------|
      
      
      E|-8-8-10b--8-8-13b|-8-----8-8-8-10b-|-13b----|
      B|--11-------11----|--11-11----------|-----7~-|
      G|-----------------|-----------------|--------|
      D|-----------------|-----------------|--------|
      A|-----------------|-----------------|--------|
      E|-----------------|-----------------|--------|
      
        Composição: Dave Stewart / Marilyn Manson / Twiggy RamirezColaboração e revisão:
        • wander_kennedy
        • duduzynhoow
        • Leo
        • MichelxD
        • +11

        Comentários 58

        140 .
        • matheus matheus: Em 17/09/2015 14:56

          Muito facil mesmo!

        • dinricci dinricci: Em 24/03/2015 19:45

          Na boa é Facil essa ein brother! qlqer duvida do SOLo olhe SITE do > songsterr com marilyn-manson-sweet-dreams-tab Q TEM! \ô. ou GuitarPRO

        • Henrique Henrique: Em 16/09/2014 21:58

          o solo final tah errado uma parte

        • alan.paderes alan.paderes: Em 30/07/2014 14:11

          afinaçao e essa msm ?

        • Victor Victor: Em 27/07/2014 18:42

          véio é facil só é dificil mesmo é o utimo solo o primeiro é facinho não precisa de video aula

        • raneycamisa10 raneycamisa10: Em 18/04/2014 20:01

          é bom que eu aprendo a dedilhar, mais um vídeo aula seria bom

        • yuri.vinicios yuri.vinicios: Em 02/03/2014 00:39

          easy

        • Heloísa Heloísa : Em 01/03/2014 20:47

          Caraa vou ate me vestir como ele pra toca essa! O.o

        • raneycamisa10 raneycamisa10: Em 04/02/2014 14:21

          Tem ir bem devagar no começo, vc vai ficando automatico

        • ggx146 ggx146: Em 10/12/2013 21:31

          nao é só a intro nao

        140 cancelar

        conseguiu tocar?

        • •••
        0:00 / 0:00

        Capítulos

          2 versões de violão dificuldade exibições contribuição e correção
          2 versões de guitarra dificuldade exibições contribuição e correção
          2 versões de cavaco dificuldade exibições contribuição e correção
          2 versões de teclado dificuldade exibições contribuição e correção
          1 versão de baixo exibições contribuição e correção
          1 versão de bateria exibições contribuição e correção
          1 versão de gaita exibições contribuição e correção
          play/pausefechar subir/descer velocidade
          6ª corda E5ª corda A4ª corda D3ª corda G2ª corda B1ª corda E
            acordes
            publicidade
            fechar
            ok