Cifra Club

The hand That Feeds

Nine Inch Nails

Cifra: Principal (violão e guitarra)
tom: F
Introdução

e|---------------------------------------------------------------|
B|---------------------------------------------------------------|
G|---------------------------------------------------------------| x8
D|---------------------------------------------------------------|
A|---------------------------------------------------------------|
E|--3---5-5---3---5---8------------------------------------------|


Refrão

e|---------------------------------------------------------------|
B|---------------------------------------------------------------|
G|---------------------------------------------------------------| x2
D|---------------------------------------------------------------|
A|---------------------------------------------------------------|
E|--1-1-1-1-1-1--0-0-0-0-0-0--2-2-2-2-2-3-3-3-3-3-3---5-5-3-5--8-|

Ouça a música para saber em que hora entrar.


Refrão 2ª Parte

e|---------------------------------------------------------------|
B|---------------------------------------------------------------|
G|---------------------------------------------------------------| 
D|---------------------------------------------------------------|
A|---------------------------------------------------------------|
E|--1-1-1-1-1-1--0-0-0-0-0-0--2-2-2-2-2---3-3-3-3-3-3-3-3-3-3-3--|


Riff Base

e|---------------------------------------------------------------|
B|---------------------------------------------------------------|
G|---------------------------------------------------------------|
D|--5----7-7---5---7---10----------------------------------------|
A|--5----7-7---5---7---10----------------------------------------|
E|--3----5-5---3---5----8----------------------------------------|


Solo

e|---5--5--3--3--8--8--9--3--5--5--------------------------------|
B|----------------------------------3--3--5--5-------------------|
G|----------------------------------------------3--3-------------|
D|---------------------------------------------------------------|
A|---------------------------------------------------------------|
E|---------------------------------------------------------------|


Ordem Correta:

Introdução: x8
Refrão: x1
Introdução: x3
Refrão 2ª Parte: x1
Riff Base: x12
Refrão: x1
Introdução: x3
Refrão 2ª Parte: x1
Parte Tocada Pelo Teclado: x3
Solo: X3
Introdução: x8
Riff Base: x24
Composição de Trent Reznor
Colaboração e revisão:
  • Rui Rizzi
4.246 exibições
    • ½ Tom
    • A
    • Bb
    • B
    • C
    • Db
    • D
    • Eb
    • E
    • F
    • F#
    • G
    • Ab
  • Adicionar à lista

    0 comentários

    Ver todos os comentários

    Conseguiu tocar?

    0 Tocaram 0 Ainda não

    Grave um vídeo tocando The hand That Feeds e nos envie!

    00:00 / 00:00
    Outros vídeos desta música
    Repetir Qualidade Automático
    Outros vídeos desta música
    00:00 / 00:00
    Automático

    Cifra Club Pro

    Aproveite o Cifra Club com benefícios exclusivos e sem anúncios
    Cifra Club Pro
    Aproveite o Cifra Club com benefícios exclusivos e sem anúncios
    OK