Cifra Club

Aprenda

Hope Leaves Live

Opeth

Cifra: Principal (violão e guitarra)
tom: B (forma dos acordes no tom de A) Capotraste na 2ª casa
                              HOPE LEAVES
                    (From the 2003 DVD 'Lamentations') 


Words & music by Mikael Åkerfeldt


All guitars with capo on 2nd fret.

Gtr I    (E A D G B e) - 'Peter Lindgren El. Guitar Clean'
Gtr II   (E A D G B e) - 'Mikael Åkerfeldt El. Guitar w/ light dist'
Gtr III  (E A D G B e) - 'Mikael Åkerfeldt El. Guitar Clean'


  Intro [Gtr 1] Riff 1
                                                                        x2
e||----------------2--------------------------------2-------------------||
B||----------2-------2----2-------------------2-------2---2-------------||
G||o-----7-----7-------7----7-------------7-----7-------7---7-----7----o||
D||o---7---7-----7--------------7---7---7---7-----7-------------7---7--o||
A||--2------------------------------------------------------------------||
E||---------------------------5---2---3-----------------------5---------||
    


Verse 1 [Gtr 1] Riff 1
                                                                        x4
e||----------------2--------------------------------2-------------------||
B||----------2-------2----2-------------------2-------2---2-------------||
G||o-----7-----7-------7----7-------------7-----7-------7---7-----7----o||
D||o---7---7-----7--------------7---7---7---7-----7-------------7---7--o||
A||--2------------------------------------------------------------------||
E||---------------------------5---2---3-----------------------5---------||



Chorus 1 [Gtr 1] Rhythm 1
                                      x2
e||------------------2-------2--------||---------------------------------|
B||------3---2h3-------3p2------3p2---||------3---2h3-2------------------|
G||o---4---4-------------------------o||----4---4-----------2-------2----|
D||o---------------------------------o||------------------5---5---5---5--|
A||-----------------------------------||---------------------------------|
E||--4-----------4-3-------3--------4-||--4-------------3-------5--------|



   Fill 1 [Gtr I] Riff 2a
e|---------------------------------------------------------------------|
B|---------------------------------------------------------------------|
G|------4-------2-----2-----2-----------4-------2-----2-----2-----2----|
D|----4---4---2-----2-----2-----------4---4---2-----2-----2-----2------|
A|--2------s7-----4-----5-----4h5---2-------4-----5----s7----s9--------|
E|--------------------------------5------------------------------------|
 |                                                                     |
 | Fill 1 [Gtr III]  NOTE: Not sure about the timing.                  |
e|---------------------------------9---10~---------------------------7-|
B|------------------------------------------------------------------7--|
G|-----------------------------------------------------------------7---|
D|--------------------------------------9~------------------------7----|
A|---------------------------------------------------------------------|
E|---------------------------------------------------------------------|

   Fill 1 [Gtr I] Riff 2b
e|-----------------------------------------------------------------------|
B|-----------------------------------------------------------------------|
G|------4-------2-----2-----2-----------4-----------------------9--------|
D|----4---4---2-----2-----2-----------4---4-----------7------10---10-----|
A|--2------s7-----4-----5-----4h5---2---------------7-----10---------10--|
E|--------------------------------5---------3----s5----s8----------------|
 |                                                                       |
 | Fill 1 [Gtr III]                                                      |
e|-------------------------------------------17~-------------------------|
B|---------------------------------------------------------17~-----------|
G|-----------------------------------------------------------------------|
D|-----------------------------------------------------------------------|
A|-----------------------------------------------------------------------|
E|-----------------------------------------------------------------------|



1st Solo [Gtr I playes Riff 1 x2]

    [Gtr II]
e|------------------------------------------------------------------------|
B|------------------14-15--15s17~---15p14---------------------------------|
G|-14s16~~----14s16-----------------------16~---14h16p14------------------|
D|-------------------------------------------------------14-12-14-14s16~~-|
A|------------------------------------------------------------------------|
E|------------------------------------------------------------------------|



Verse 2 [Gtr 1] Riff 1   (Drums and bass kicks in)
                                                                        x4
e||----------------2--------------------------------2-------------------||
B||----------2-------2----2-------------------2-------2---2-------------||
G||o-----7-----7-------7----7-------------7-----7-------7---7-----7----o||
D||o---7---7-----7--------------7---7---7---7-----7-------------7---7--o||
A||--2------------------------------------------------------------------||
E||---------------------------5---2---3-----------------------5---------||



Chorus 2 [Gtr 1] Rhythm fig. 1
                                      x2
e||------------------2-------2--------||---------------------------------|
B||------3---2h3-------3p2------3p2---||------3---2h3-2------------------|
G||o---4---4-------------------------o||----4---4-----------2-------2----|
D||o---------------------------------o||------------------5---5---5---5--|
A||-----------------------------------||---------------------------------|
E||--4-----------4-3-------3--------4-||--4-------------3-------5--------|



Fill 2 [Gtr I, Gtr III] Riff 2a
                                                                        x4
e||---------------------------------------------------------------------||
B||---------------------------------------------------------------------||
G||o------4-------2-----2-----2-----------4-------2-----2-----2-----2--o||
D||o----4---4---2-----2-----2-----------4---4---2-----2-----2-----2----o||
A||---2------s7-----4-----5-----4h5---2-------4-----5----s7----s9-------||
E||---------------------------------5-----------------------------------||



Interlude [Gtr I, Gtr III] 

e|--(2)--(2)-------|--------------------------------------------------|
B|--(2)--(2)--(6)--|--------------------------2-----------------------|
G|--(4)--(4)--(6)--|--4---2--2--------------2----------2-4-6--s7------|
D|--(4)--(4)--(4)--|--4---2--2----------------------------------------|
A|-----------------|--2-2-4--4----------------------------------------|
E|-----------------|-------------2-3---5-5---------5-6----------------|




2nd Solo [Gtr I playes Riff 1 x2]

    [Gtr II]
e|---------------------------------------------------------|
B|---------------------------------------------------------|
G|----------------------6s7s6s4s6s2s4-------{2}~-----------|
D|----5--7p5s4~------------------------2s4~----------------|
A|---------------------------------------------------------|
E|---------------------------------------------------------|



Verse 3 [Gtr 1, Gtr III] Riff 1 
                                                                        x4
e||----------------2--------------------------------2-------------------||
B||----------2-------2----2-------------------2-------2---2-------------||
G||o-----7-----7-------7----7-------------7-----7-------7---7-----7----o||
D||o---7---7-----7--------------7---7---7---7-----7-------------7---7--o||
A||--2------------------------------------------------------------------||
E||---------------------------5---2---3-----------------------5---------||



Chorus 3 [Gtr 1, Gtr III] Rhythm fig. 1
                                      x2
e||------------------2-------2--------||---------------------------------|
B||------3---2h3-------3p2------3p2---||------3---2h3-2------------------|
G||o---4---4-------------------------o||----4---4-----------2-------2----|
D||o---------------------------------o||------------------5---5---5---5--|
A||-----------------------------------||---------------------------------|
E||--4-----------4-3-------3--------4-||--4-------------3-------5--------|



Outro [Gtr I, Gtr III] Riff 2a
                                                                        x8
e||---------------------------------------------------------------------||
B||---------------------------------------------------------------------||
G||o------4-------2-----2-----2-----------4-------2-----2-----2-----2--o||
D||o----4---4---2-----2-----2-----------4---4---2-----2-----2-----2----o||
A||---2------s7-----4-----5-----4h5---2-------4-----5----s7----s9-------||
E||---------------------------------5-----------------------------------||




=-=-= Legend =-=-=
~  - Vibrato
h  - Hammer on
p  - Pull off
() - Played Softer
{x}~ - tremolo bar vibrato
Composição de Mikael / Opeth
760 exibições
    • ½ Tom
    • A
    • Bb
    • B
    • C
    • Db
    • D
    • Eb
    • E
    • F
    • F#
    • G
    • Ab
  • Adicionar à lista

    0 comentários

    Ver todos os comentários

    Conseguiu tocar?

    0 Tocaram 0 Ainda não

    Grave um vídeo tocando Hope Leaves Live e nos envie!

    00:00 / 00:00
    outros vídeos desta música
    repetir qualidade Automático
    Outros vídeos desta música
    00:00 / 00:00
    Automático

    Cifra Club Pro

    Aproveite o Cifra Club com benefícios exclusivos e sem anúncios
    Cifra Club Pro
    Aproveite o Cifra Club com benefícios exclusivos e sem anúncios
    OK