Cifra Club

Pegasus Fantasy

Os Cavaleiros Do Zodíaco

Cifra: Principal (violão e guitarra)
exibições 176.786
Tom: A
[Introdução] C5  Ab5
             C5  Ab5

E|-----------------------------------------------------|
B|-----------------------------------------------------|
G|-----------------------------------------------------|
D|-----5-3---------------------------------------------|
A|-3-6-------5-------3-6-5-----------------------------|
E|-------------6-4-----------6-3-----------------------|

E|-----------------------------------------------------|
B|-----------------------------------------------------|
G|-----------------------------------------------------|
D|-----5-3-------6-------------------------------------|
A|-3-6-------5---6-------------------------------------|
E|-------------6-4-------------------------------------|

E|-----------------------------------------------------|
B|-----------------------------------------------------|
G|-----------------------------------------------------|
D|-----5-3---------------------------------------------|
A|-3-6-------5-------3-6-5-----------------------------|
E|-------------6-4-----------6-3-----------------------|

                      P.M. . . .
E|-----------------------------------------------------|
B|-----------------------------------------------------|
G|-----------------------------------------------------|
D|-----5-3-------6-------------------------------------|
A|-3-6-------5---6-----6-6-6-6-6-----------------------|
E|-------------6-4-----4-4-4-4-4-----------------------|


[Primeira Parte]

         C5
Faça elevar 
                G5
O cosmo no seu coração
        Ab5      Bb5
Todo o mal combater
       Eb5     G5
Despertar o poder
             C5
Sua constelação 
                G5
Sempre irá te proteger
   Ab5             Bb5          C5
Supera a dor e dá forças pra lutar


[Pré-Refrão]

Ab5          Bb5
    Pegasus Fantasy
        Eb5  Bb/D  C5  Bb5
Desejos a  rea__lizar
        Ab5             Bb5
Pois as asas de um coração sonhador
          G5
Ninguém irá roubar


[Refrão]

          C5
Saint Seiya
                  Ab5
Guerreiro das estrelas
       Bb5
Saint Seiya
          Eb5  G5
Nada a temer
          C5
Saint Seiya
                Ab5
Unidos por sua força
 Bb5        
Saint Seiya
                C5  Ab5  Bb5  
Pégasus até vencer

( C5  Ab5  Bb5 )

Riffs do Refrão
E|-15------------10--------------15-----15-----15------|
B|-18b20~--------13b15~----------18b20~-18b20~-18b20~--|
G|-----------------------------------------------------|
D|-----------------------------------------------------|
A|-----------------------------------------------------|
E|-----------------------------------------------------|

E|-15------------10-------10---------------------------|
B|-18b20~--------13b15~---13b15~-----------------------|
G|-----------------------------------------------------|
D|-----------------------------------------------------|
A|-----------------------------------------------------|
E|-----------------------------------------------------|


[Segunda Parte]

         C5
Faça elevar 
                G5
O cosmo no seu coração
        Ab5      Bb5
Todo o mal combater
       Eb5     G5
Despertar o poder
             C5
Sua constelação 
                G5
Sempre irá te proteger
   Ab5             Bb5          C5
Supera a dor e dá forças pra lutar


[Pré-Refrão]

Ab5          Bb5
    Pegasus Fantasy
        Eb5  Bb/D  C5  Bb5
Desejos a  rea__lizar
        Ab5             Bb5
Pois as asas de um coração sonhador
          G5
Ninguém irá roubar


[Refrão]

          C5
Saint Seiya
                  Ab5
Guerreiro das estrelas
       Bb5
Saint Seiya
          Eb5  G5
Nada a temer
          C5
Saint Seiya
                Ab5
Unidos por sua força
 Bb5        
Saint Seiya
              
Pégasus até vencer


[Solo] C5  Bb5  Ab5  Bb5
       C5  Bb5  Ab5  Bb5  C5

E|-----------------------------------------------------|
B|--------------------8-9p8----------------------------|
G|-\8~--8h10p8\7-8~---------10-8-7----8p7--------------|
D|---------------------------------10-----10-8-6-10-8-6|
A|-----------------------------------------------------|
E|-----------------------------------------------------|

E|-----------------------------------------------------|
B|-----------------------------------------------------|
G|----------------------------------------8------------|
D|----8-6----------------------------8h10---10~--------|
A|-10-----10-8-6-10-8-6--------------------------------|
E|----------------------10-8~--------------------------|

E|--------------8---10---10b11~~r10p8---------10-------|
B|-8-8h9---11---------------------------11b13----11b13-|
G|-----------------------------------------------------|
D|-----------------------------------------------------|
A|-----------------------------------------------------|
E|-----------------------------------------------------|

E|-10-------10-------10-------10-------10--------------|
B|----11b13----11b13----11b13----11b13----11b13~/------|
G|-----------------------------------------------------|
D|-----------------------------------------------------|
A|-----------------------------------------------------|
E|-----------------------------------------------------|

E|-15------15-15-15------15----------------------------|
B|-18b20~-----18-18b20~-b20~~--------------------------|
G|-----------------------------------------------------|
D|-----------------------------------------------------|
A|-----------------------------------------------------|
E|-----------------------------------------------------|

E|-15-15-20-20-------15-15-------11-11-------10--------|
B|-------------13-13-------------------12-12-----------|
G|-------------------------12-12-----------------------|
D|-----------------------------------------------------|
A|-----------------------------------------------------|
E|-----------------------------------------------------|

E|-10h11p10p8-10-11-10-8-10~~--------------------------|
B|-----------------------------------------------------|
G|-----------------------------------------------------|
D|-----------------------------------------------------|
A|-----------------------------------------------------|
E|-----------------------------------------------------|

E|-----------------------------------------------------|
B|-----11-13b16r---------------------------------------|
G|------------------10--8------------------------------|
D|-/13--------------------10-9-8-----------------------|
A|-------------------------------10-9-8-6-8p6----------|
E|--------------------------------------------8~-------|

E|-----------------------------------------------------|
B|-----------------------------------------------------|
G|-----------------------------------------------------|
D|-----------------------------------------------------|
A|-/20b22r\--------------------------------------------|
E|-----------------------------------------------------|


[Pré-Refrão]

Ab5          Bb5
    Pegasus Fantasy
        Eb5  Bb/D  C5  Bb5
Desejos a  rea__lizar
        Ab5             Bb5
Pois as asas de um coração sonhador
          G5
Ninguém irá roubar


[Refrão]

          C5
Saint Seiya
                  Ab5
Guerreiro das estrelas
       Bb5
Saint Seiya
          Eb5  G5
Nada a temer
          C5
Saint Seiya
                Ab5
Unidos por sua força
 Bb5        
Saint Seiya
              
Pégasus até vencer

Final – Guitarra 1
E|-----------------------------------------------------|
B|-----------------------------------------------------|
G|-----------------------------------------------------|
D|-----------------------------------------------------|
A|-3-----5--6------------------------------------------|
E|-------------4-----6--6/8--6~------------------------|

E|-----------------------------------------------------|
B|-----------------------------------------------------|
G|-----------------------------------------------------|
D|-----------------------------------------------------|
A|-3-----5--6------------------------------------------|
E|-------------4-----6--6/8--6~------------------------|

E|-----------------------------------------------------|
B|-----------------------------------------------------|
G|-5---5---5-------------------------------------------|
D|-5---5---5-------------------------------------------|
A|-3---3---3-------------------------------------------|
E|-----------------------------------------------------|


Final – Guitarra 2
E|-----------------------------------------------------|
B|-----------------------------------------------------|
G|-5---------------------------------------------------|
D|-5---------------------------------------------------|
A|-3-----5--6------------------------------------------|
E|-------------4-----6--6/8--6~------------------------|

E|-----------------------------------------------------|
B|-----------------------------------------------------|
G|-----------------------------------------------------|
D|-----------------------------------------------------|
A|-6~----8--10--6~---6--8/10--8~-----------------------|
E|-----------------------------------------------------|
        
E|--8-------8-------8----------------------------------|
B|-11b13---11b13---11b13~~-----------------------------|
G|-----------------------------------------------------|
D|-----------------------------------------------------|
A|-----------------------------------------------------|
E|-----------------------------------------------------|
Acordes para:

    0 comentários

    mostrar mais comentários

    Conseguiu tocar?

    22 tocaram 5 ainda não

    Grave um vídeo tocando Pegasus Fantasy e mande pra gente!

    00:00 / 00:00
    outros vídeos desta música
    repetir qualidade Automático
    Outros vídeos desta música
    00:00 / 00:00
    Automático
    Capítulos
    • Tocando a música
    • Apresentação / Equipamentos
    • Dicas introdução
    • Acordes introdução
    • Tocando introdução
    • Guitarra solo - introdução
    • Guitarra base - introdução
    • Dicas primeira parte
    • Acordes primeira parte
    • Tocando primeira parte
    • Ensinando primeira parte
    • Dicas pré-refrão
    • Acordes pré-refrão
    • Tocando pré-refrão
    • Ensinando pré-refrão
    • Dicas refrão
    • Tocando refrão
    • Ensinando refrão
    • Ensinando passagem
    • Ensinando riffs refrão
    • Dicas repetições
    • Tocando repetições
    • Ensinando solo
    • Dicas final
    • Tocando final
    • Guitarra 1 - final
    • Guitarra 2 - final
    • Encerramento
    OK