Cifra Club

Remember Sadness

Os Cavaleiros Do Zodíaco

Cifra: Principal (violão e guitarra)
Selo Cifra Club: esta cifra foi revisada para atender aos critérios oficiais da nossa Equipe de Qualidade.
tom: G
E|0--2--5--3--2--3--------------0-----------------
B|---------------------------0-----0--------------
G|------------------------0-----------0------------
D|---------------------2-----------------2---------
A|------------------0------------------------------
E|------------------------------------------0------

E|0--2--3--0--7--10--8--------------0---------------
B|-------------------------------6-----6------------
G|----------------------------7-----------7---------
D|-------------------------9-----------------9------
A|----------------------0---------------------------
E|----------------------------------------------0---

E|5-7--8--7--5--------------0-----------------------------------
B|-----------------------0-----0--------------------------------
G|--------------------0-----------0-----------------------------
D|-----------------2-----------------0--------------------------
A|--------------0-----------------------------------------------
E|--------------------------------------0-----------------------

E|2--3--2-----------0------------------
B|---------0-----------0----------------
G|------------------------0------------
D|---------------3-----------0-----12------
A|------------0--------------------------
E|------------------------------0-------

(Repete 2x)
Outros vídeos desta música
9.686 exibições
    • ½ Tom
    • A
    • Bb
    • B
    • C
    • Db
    • D
    • Eb
    • E
    • F
    • F#
    • G
    • Ab
  • Adicionar à lista

Afinação da cifra

Afinador online

    0 comentários

    Ver todos os comentários

    Entre para o Cifra Club PRO

    Tenha acesso a benefícios exclusivos no App e no Site

    • Chega de anúncios

    • Mais recursos no app do Afinador

    • Atendimento Prioritário

    • Aumente seu limite de lista

    • Ajude a produzir mais conteúdo

    Cifra Club Pro

    Aproveite o Cifra Club com benefícios exclusivos e sem anúncios
    Cifra Club Pro
    Aproveite o Cifra Club com benefícios exclusivos e sem anúncios
    OK