Cifra Club

Brick

Paramore

Cifra: Principal
exibições 14.787
Tom: D#
(verse)
E|--------------------------------------------------------|
B|--------------------------------------------------------|
G|-------10-8-5-5h6p5h6p5---------------------------------|
D|-----6--------------------------------------------------|
A|-6/8----------------------------------------------------|
E|--------------------------------------------------------|

(pre-chorus)
E|--------------------------------------------------------|
B|--------------------------------------------------------|
G|--------------------------------------------------------|
D|-8----10-6-5---6--8-------------------------------------|
A|--------------------------------------------------------|
E|--------------------------------------------------------|

(chorus)
E|--------------------------------------------------------|
B|-----9-8--------9-8-------------------------------------|
G|-1/5-----8-1/5------8------8----8----5/3--5/3-----------|
D|-----------------------5/6---5/6------------------------|
A|--------------------------------------------------------|
E|--------------------------------------------------------|

(bridge)
E|--------------------------------------------------------|
B|--------------------------------------------------------|
G|----------13-15-13---12-13------------------------------|
D|-11-13-13---------13------------------------------------|
A|--------------------------------------------------------|
E|--------------------------------------------------------|

(outro)
E|--------------------------------------------------------|
B|--------------------------------------------------------|
G|--------------------------------------------------------|
D|--10^---------------------------------------------------|
A|--------------------------------------------------------|
E|--------------------------------------------------------|

(intro 2x) ( Fm  Eb  Ab )

(verse)
n.c
She lives in a fairy tale

Somewhere too far for us to find

Forgotten the taste and smell

Of the world that she's left behind


Fm                                      Ab
It's all about the exposure the lens i told her


Fm
The angles were all wrong now

Ab
She's ripping wings off of butterflies


9pre-chorus)
Eb                              Ab      Eb      Cm
Keep your feet on the ground

Eb                              Ab      Eb      Cm
When your head’s in the clouds


(chorus)
Ab
Well go get your shovel

Cm
And we'll dig a deep hole

Ab
To bury the castle
Eb
Bury the castle

Ab
Well go get your shovel

Cm
And we'll dig a deep hole

Ab
To bury the castle
Eb
Bury the castle

n.c
Ba da ba ba da ba
ba-ah

( Ab  Fm Eb Ab )

(verse)
n.c
So one day he found her crying

Coiled up on the dirty ground

Her prince finally came to save her

And the rest you can figure out

Fm
But it was a trick

Ab
And the clock struck 12

Fm
Well make sure to build your home brick by boring brick
ab

Or the wolves gonna blow it down


(pre-chorus)
Ab                              Eb      Ab      Cm
Keep your feet on the ground

Ab                              Eb      Ab      Cm
When your head’s in the clouds


(chorus)
Ab
Well go get your shovel

Cm
And we'll dig a deep hole

Ab
To bury the castle
Eb
Bury the castle

Ab
Well go get your shovel

Cm
And we'll dig a deep hole

Ab
To bury the castle
Eb
Bury the castle


(bridge) (not so sure about this part)
Bb  Ab  Eb  Cm
Bb  Ab  Eb  Fm
Well you built up a world of magic

Because your real life is tragic

Yeah you built up a world of magic


(pre-chorus 2)
Ab
If it's not real

Eb
You can't see it with your eyes

Ab
You can't feel it with your heart

Cm
And i won't believe it
ab

Cause if it's true


Eb
You can see it with your eyes

Ab
Even in the dark

Cm
And that's where i want to be  yeah


(chorus)
Ab
Well go get your shovel

Cm
And we'll dig a deep hole

Ab
To bury the castle
Eb
Bury the castle

Ab
Well go get your shovel

Cm
And we'll dig a deep hole

Ab
To bury the castle
Eb
Bury the castle


(outro)
Fm  Ab
Acordes para:
    Colaboração e revisão:
    • Letícia Severo
    • Leilane Verga

    0 comentários

      mostrar mais comentários

      Conseguiu tocar?

      4tocaram0ainda não

      Grave um vídeo tocando Brick e mande pra gente!

      00:00 / 00:00
      outros vídeos desta música
      repetirqualidadeAutomático
      Outro vídeos desta música
        00:00 / 00:00
        OK