Cifra Club

Aprenda

Não Largo, Não Troco, Não Empresto

Paula Mattos

Cifra: Principal (violão e guitarra)
tom: E
[Intro] B F#m  B  E

E|----------------------------------------------7------|
B|----------------7--7/9--7-------7--7/9--7-------9~~--|
G|---------6-9-6------------9-9-6-----------9-9--------|
D|---11/9----------------------------------------------|
A|-----------------------------------------------------|
E|-----------------------------------------------------|

E                             G#m
Que tal se a gente parar de brigar
        A
Parar de insegurança
                  Am
De ficar mexendo no meu celular
     E
Que tal
                                        G#m
Parar de se incomodar quando olho pro lado

Ficar de cara feia
                   A
Discutindo quando entro no carro
          Am
Para de ciume
              F#m
Não tem nada haver
             B
Eu amo só você
                E
Não da pra esconder
                     B
Tá na cara, todo mundo vê
              F#m
Que o meu coração 
                   B
E seu de mais ninguém
                  A
Você me faz tão bem
      Am
Tão bem
                          E
Eu não te largo, não te troco, não te empresto
                       B
Você entrou na minha vida pra dar certo
                    F#m
Eu quero apenas o melhor pra gente
                        A
Ficar comigo, tipo assim pra sempre
                          E
Eu não te largo, não te troco, não te empresto
                       B
Você entrou na minha vida pra dar certo
                    F#m
Eu quero apenas o melhor pra gente
                     A   (Am)        E
Ficar comigo, tipo assim.... pra sempre

( B  F#m  B  E )

E|----------------------------------------------7------|
B|----------------7--7/9--7-------7--7/9--7-------9~~--|
G|---------6-9-6------------9-9-6-----------9-9--------|
D|---11/9----------------------------------------------|
A|-----------------------------------------------------|
E|-----------------------------------------------------|

              F#m
Não tem nada haver
              B
Eu amo só você
                E
Não da pra esconder
                     B
Tá na cara, todo mundo vê
              F#m
Que o meu coração 
                   B
E seu de mais ninguém
                  A
Você me faz tão bem
      Am
Tão bem                          
                          E
Eu não te largo, não te troco, não te empresto
                       B
Você entrou na minha vida pra dar certo
                    F#m
Eu quero apenas o melhor pra gente
                        A
Ficar comigo, tipo assim pra sempre
                          E
Eu não te largo, não te troco, não te empresto
                       B
Você entrou na minha vida pra dar certo
                    F#m
Eu quero apenas o melhor pra gente
                     A   (Am)        E
Ficar comigo, tipo assim.... pra sempre

( B  F#m  B )

E|---------7----------------------------|
B|-----------9-7/9-7---------7-7/9-7~~--|
G|--6-8-9-------------9-9-6-------------|
D|--------------------------------------|
A|--------------------------------------|
E|--------------------------------------|
  
E
Pra sempre
Composição de PAULA MATTOS
30.408 exibições
  • Simplificar cifra
    • ½ Tom
    • A
    • Bb
    • B
    • C
    • Db
    • D
    • Eb
    • E
    • F
    • F#
    • G
    • Ab
  • Adicionar à lista

    0 comentários

    Ver todos os comentários

    Conseguiu tocar?

    3 Tocaram 0 Ainda não

    Grave um vídeo tocando Não Largo, Não Troco, Não Empresto e nos envie!

    00:00 / 00:00
    outros vídeos desta música
    repetir qualidade Automático
    Outros vídeos desta música
    00:00 / 00:00
    Automático

    Cifra Club Pro

    Aproveite o Cifra Club com benefícios exclusivos e sem anúncios
    Cifra Club Pro
    Aproveite o Cifra Club com benefícios exclusivos e sem anúncios
    OK