Cifra Club

Miedo

Pepe Aguilar

Cifra (violão e guitarra)
Selo Cifra Club: esta cifra foi revisada para atender aos critérios oficiais da nossa Equipe de Qualidade.
tom: Am
E|--3-1-0-------0-1-3-1-0-------0-1-3-1-0-------0-1-3-1-0-------0-1-3-1-0-------0-1-3--|
B|--------3---3-----------3---3-----------3---3-----------3---3-----------3---3--------|
G|-------------------------------------------------------------------------------------|
D|-------------------------------------------------------------------------------------|
A|-------------------------------------------------------------------------------------|
E|-------------------------------------------------------------------------------------|
 |                                                                                     |
 |Guitar 2 [acústica]                                                                  |
E|------------------------------------------------------------------0------------------|
B|------------------------------------------------------------------1------------------|
G|------------------------------------------------------------------0------------------|
D|------------------------------------------------------------------2------------------|
A|------------------------------------------------------------------3------------------|
E|-------------------------------------------------------------------------------------|


                 G                               F                               A#

E|-1-0-------0-1-3-1-0-------0-1-3-1-0-------0-1-3-1-0-------0-1-3-1-0-------0-1-3-1-0-|
B|-----3---3-----------3---3-----------3---3-----------1---1-----------1---1-----------|
G|-------------------------------------------------------------------------------------|
D|-------------------------------------------------------------------------------------|
A|-------------------------------------------------------------------------------------|
E|-------------------------------------------------------------------------------------|
 |                                                                                     |
 |                                                                                     |
E|---------------3-------------------------------1-------------------------------1-----|
B|---------------3-------------------------------1-------------------------------3-----|
G|---------------0-------------------------------2-------------------------------3-----|
D|---------------0-------------------------------3-------------------------------3-----|
A|---------------2-------------------------------3-------------------------------1-----|
E|---------------3-------------------------------1-------------------------------------|


                             C                               G

E|-------0-1-3-1-0-------0-1-3-1-0-------0-1-3-1-0-------0-1-3-1-0-------0-1-3-1-0-----|
B|-1---1-----------1---1-----------3---3-----------3---3-----------3---3-----------3---|
G|-------------------------------------------------------------------------------------|
D|-------------------------------------------------------------------------------------|
A|-------------------------------------------------------------------------------------|
E|-------------------------------------------------------------------------------------|
 |                                                                                     |
 |                                                                                     |
E|---------------------------0-------------------------------3-------------------------|
B|---------------------------1-------------------------------3-------------------------|
G|---------------------------0-------------------------------0-------------------------|
D|---------------------------2-------------------------------0-------------------------|
A|---------------------------3-------------------------------2-------------------------|
E|-----------------------------------------------------------3-------------------------|
 |                                                                                     |
 | Guitar 3      delay-----v                                                           |
E|-------------------------10------------0-1-3p1-0-3/5-3---6/8-8---6--5--3-------------|
B|-------------------------------------3-----------------------------------------------|
G|-------------------------------------------------------------------------------------|
D|-------------------------------------------------------------------------------------|
A|-------------------------------------------------------------------------------------|
E|-------------------------------------------------------------------------------------|






                                                                                 Hace
         F                               A#                              C

E|---0-1-3-1-0-------0-1-3-1-0-------0-1-3-1-0-------0-1-3-1-0-------0h1---------------|
B|-3-----------1---1-----------1---1-----------1---1-----------1---1-------------------|
G|-------------------------------------------------------------------------------------|
D|-------------------------------------------------------------------------------------|
A|-------------------------------------------------------------------------------------|
E|-------------------------------------------------------------------------------------|
 |                                                                                     |
 |                                                                                     |
E|-------1-------------------------------1---------------------------------------0-----|
B|-------1-------------------------------3-------------------------------------1---1---|
G|-------2-------------------------------3-------------------------------------0-------|
D|-------3-------------------------------3---------------------------------2-----------|
A|-------3-------------------------------1-------------------------------3-------------|
E|-------------------------------------------------------------------------------------|
 |                                                                                     |
 |                                                                                     |
E|---0-1-3p1-0-------0-1-3p1-0-------0-1-3p1-0-----------------------------------------|
B|-3-----------1---1-----------1---1-----------1---1-1/3-------------------------------|
G|-------------------------------------------------------------------------------------|
D|-------------------------------------------------------------------------------------|
A|-------------------------------------------------------------------------------------|
E|-------------------------------------------------------------------------------------|


  Tanto tiempo sin saber de ti          por fin me encuentro                 frente   a
        Am7/B        Am           G                  Dm            F
E|-----------0-----------0------------3-3----------------1---------------1-1-----------|
B|---------1---1-------1---1--------3-3---3----------------3-------------1-1-----------|
G|--0------------0-----------0------0-------0----------2-----2---------2-2-2-----------|
D|---------------------------------------------------0---------0-2---3-----------------|
A|------2------------0-----------------------------------------------------------------|
E|--------------------------------3--------------------------------1-------------------|

  frente
   G               G7
E|-----3-3-3-------3-----------------|
B|-----3-3-3-3-3-3-3-----------------|
G|-----4-----4-4-4-4-----------------|
D|---5-----------5-3-----------------|
A|-----------------5-------------0---|
E|-3---------------3-----3-0-1-3-----|


Am             Em      F           G
  la extraña sensación,  buscar adentro
C         Am7/B        Am     G             Dm    F              G
  en libertad sentirme preso    frente al espejo     lloran mis miedos

Coro:
            F                 G                  E                        Am
Miedo de sentirme solo teniéndote, miedo a no sentir tus manos sobre mi piel
  G          F                            G                E                      Am
miedo a no saber que piensas  si te hago falta, ganas de tirar mi ego, por la ventana
      G   F                G    C
y me pregunto ¿que hago aquí? sin ti
C            Am7/B             Am    G        Dm     F              G
  Esto de mostrarme frente al mundo    a cara limpia,   no se si es justo
Am               Em     F              G
   se dice que el  amor    puede ser ciego
C          Am7/B        Am    G              Dm    F               G
   en libertad sentirme preso    frente al espejo     lloran mis miedos


            F                 G                  E                        Am
Miedo de sentirme solo teniéndote, miedo a no sentir tus manos sobre mi piel
  G          F                            G                E                      Am
miedo a no saber que piensas  si te hago falta, ganas de tirar mi ego, por la ventana
      G   F                G
y me pregunto ¿que hago aquí?

sin ti

Y tu mi amigo ¿Qué pensaras?
Si estas igual que yo
Tienes miedo
Siempre miedo
Siempre miedo ..siempre miedo
Tanto miedo
Outros vídeos desta música
    6 exibições
      • ½ Tom
      • Am
      • Bbm
      • Bm
      • Cm
      • C#m
      • Dm
      • Ebm
      • Em
      • Fm
      • F#m
      • Gm
      • G#m
    • Adicionar à lista

    Afinação da cifra

    Afinador online

      0 comentários

      Ver todos os comentários

      Conseguiu tocar?

      0Tocaram0Ainda não

      Grave um vídeo tocando Miedo e nos envie!

      Toque também

      1. Imagem do artista José JoséLa Nave Del Olvido José José
      2. Imagem do artista Vicente FernándezLas Mañanitas Vicente Fernández
      3. Imagem do artista Alejandro FernándezMe Dedique a Perderte Alejandro Fernández
      4. Imagem do artista Joan SebastianEso Y Mas Joan Sebastian

      Entre para o Cifra Club PRO

      Tenha acesso a benefícios exclusivos no App e no Site

      • Chega de anúncios

      • Badges exclusivas

      • Mais recursos no app do Afinador

      • Atendimento Prioritário

      • Aumente seu limite de lista

      • Ajude a produzir mais conteúdo

      Cifra Club Pro

      Aproveite o Cifra Club com benefícios exclusivos e sem anúncios
      Cifra Club Pro
      Aproveite o Cifra Club com benefícios exclusivos e sem anúncios
      Ops (: Contenido disponible sólo en portugués.
      OK