Cifra Club

Show me the way

Peter Frampton

Cifra: Principal (violão e guitarra)
tom: G
[Intro] D  D7M  Bm  Bb6  C

E|-----------------------------------------------------------------------------|
B|----------------------------------10-----------------------------------------|
G|-------------6--7-----7--10-9--7-----7----------------6-7-----8--10--9--8-8--|
D|--7~---7--9--------9----------------------9--7---7--9------9-----------------|
A|-----------------------------------------------------------------------------|
E|-----------------------------------------------------------------------------|

         D                D7M
E|-----5-5-5---------|-------5-5-5-------|
B|-----7-7-7---------|-------7-7-7-------|
G|-----7-7-7---------|-------6-6-6-------|
D|-----0-0-0---------|-------0-0-0-------|
A|-------------------|-------------------|
E|-------------------|-------------------|

   D                                 D7M
 I wonder how you're feeling there's ringing in my ears
     Bm                             Bb6     Bb6  C
 And no one to relate to 'cept the sea
 D                               D7M
 Who can I believe in ?   I'm  kneeling on the floor
       Bm                       Bb6
 There has to be a force.  Who do I phone ?

       A7/4                                 G7
 The stars are out and shining.  But all I really want to know

 G7  A     Bm   Bm  A      G7
 Oh won't you show me the way
 G7  A    Bm   Bm  A      G7  A7/4
 I want you show me the way

D  D7M  Bm  Bb6  C
E|--------------------------------------------------------------------|
B|-----------------7--8--10--10--8--7---------------------------------|
G|--------6--7--9---------------------9--9-9-7-9-10-9-7-9-10-9-7-7-7--|
D|--7--9--------------------------------------------------------------|
A|--------------------------------------------------------------------|
E|--------------------------------------------------------------------|

  D                               D7M
 Well, I can see no reason.. you living on your nerves
       Bm                          Bb6   Bb6  C
 When someone drops a cup and I submerge
 D                               D7M
 I'm swimming in a circle ... I feel I'm going down
        Bm                   Bb6
 There has to be a fool to play my part

  A7/4                                    G7
 For someone thought of healing..  But all I really want to know
 G7  A     Bm   Bm  A      G7
 Oh won't you show me the way  everyday yeah, yeah
 G7  A    Bm   Bm  A      G7
 I want you show me the way oh, oh, oh
 G7  A   Bm   Bm  A      G7  A7/4
 I want you day after day  eh, eh, eh

[Solo] D  D7M  Bm  Bb6  C  D  D7M  Bm  Bb6  C  D

 D                            D7M
 I wonder if I'm dreaming  I feel so unashamed
    Bm                              Bb6
 I can't believe this is happening to me

 A7/4
 I watch you when you're sleeping
             G7
 And then I want to take your love

 G7  A     Bm  A          G7
 Oh won't you show me the way, everyday
 G7  A    Bm    A          G7
 I want you show me the way, one more time
 G7  A   Bm     A          G7
 I want you day after day  eh !
 G7  A   Bm     A       G7  A7/4
 I want you day after day  eh !

( D  D7M  Bm  G )

 G7  A     Bm  A          G7
 Oh won't you show me the way everyday
 G7  A    Bm    A          G7
 I want you show me the way, night and day
 G7  A   Bm     A       G7  A7/4                  D
 I want you day after day, eh,eh, eh, eh, eh, eh, eh
 D7M
 Oh, oh

( Bm   Bb6  C  D )
00:00 / 00:00
Outros vídeos desta música
Repetir
Outros vídeos desta música
Composição de Peter Frampton
Colaboração e revisão:
158.650 exibições
    • ½ Tom
    • A
    • Bb
    • B
    • C
    • Db
    • D
    • Eb
    • E
    • F
    • F#
    • G
    • Ab
  • Adicionar à lista

    0 comentários

    Ver todos os comentários

    Entre para oCifra Club PRO

    Tenha acesso a benefícios exclusivos no App e no Site

    • Chega de anúncios

    • Prioridade de compra em lançamentos

    • Mais recursos no app do Afinador

    • Atendimento Prioritário

    • Descontos nos produtos Cifra Club

    • Ajude a produzir mais conteúdo

    00:00 / 00:00

    Cifra Club Pro

    Aproveite o Cifra Club com benefícios exclusivos e sem anúncios
    Cifra Club Pro
    Aproveite o Cifra Club com benefícios exclusivos e sem anúncios
    OK