Cifra Club

Look Through My Eyes

Phil Collins

Cifra: Principal (violão e guitarra)
Selo Cifra Club: esta cifra foi revisada para atender aos critérios oficiais da nossa Equipe de Qualidade.
tom: E
[Intro] D  D7M(9)/A  G
        D  D7M(9)/A  G
        D  D7M(9)/A  G
        D  D7M(9)/A  G  C  C

    D     D7M(9)/A      G                   D  D7M(9)/A     G
E|------------------------------------------------------------------|
B|--3---3------2---2-----0------------------2---3---3---2-----------|
G|----2---2------2---2-------------------2----2---2---2---2-0-------|
D|--0-------0----------0---0-0-0-0| 0-2-4--0-------------------0-0-0|
A|-------------0------------------------------------0---------------|
E|-----------------------3-------3--------------------------3-------|

         D     D7M(9)/A      G                  D   D7M(9)/A
E|--2------2-2---5---0----------------------------------------------|
B|----3--------3---3------2----3-------------------2---3---3---2----|
G|------2---------------2---2-------------------2----2---2---2--2---|
D|---------0----------------------0-0-0-0| 0-2-4--0-----------------|
A|-------------------0-------------------------------------0--------|
E|-----------------------------3--------3---------------------------|

  G                 C              C          
E|-----------0h2------------------------------------------|
B|--0------------3-0--1--1--1--1--1--1--1--1---1--1-------|
G|--------------------0--0--0--0--0--0--0--0---0--0-------|
D|----0-0-0-----------2--2--2--2--2--2--2--2---2--2-------|
A|--------------------3-----------3--3------------3-------|
E|--3-----------------------------------------------------|

 D                  Bm7            F#m7 
  There are things in life you learn
                      G6/9
And oh in time you'll see

E|--0-------0---------|
B|----3-------3-------|
G|------2-------2-----|
D|--------------------|
A|--------------------|
E|--------------------|

 D                        Bm7
  It's out there somewhere
              F#m7
It's all waiting
              G6/9
If you keep belie__ving
 C9
   So don't run
          D
Don't hide
                   C9
    It will be__ alright

You'll see
        D
Trust me
                B9
I'll be the__re watching over you
            E    E/G#         A  A/G#
Just take a look throu__gh my e__yes
F#m7               E               C#m7
  There's a better place somewhere out there
B           E    E/G#         A  A/G#
Just take a look throu__gh my e__yes
F#m7          E 
   Everything changes
C#m7       B                 A
You'll be amazed what you'll fin__d
                  A
(There's a better place)
          B               C#9
   If you look through my e__yes

   D      D7M(9)/A     G                 D    D7M(9)/A     G
E|-----------------------------------------------------------------|
B|--3---3------2---2-----0------------------2---3---3---2---0------|
G|----2---2------2---2-------------------2----2---2---2---2--------|
D|--0-------0----------0---0-0-0-0| 0-2-4--0------------------0-0-0|
A|-------------0------------------------------------0--------------|
E|-----------------------3-------3--------------------------3------|

E|--0h2---2------|
B|------3--------|
G|---------------|
D|---------------|
A|---------------|
E|---------------|

E9                   C#m7            G#m7
  There will be times on this journey
                  A9
All you'll see is darkness 


E|--0-2-5-4------|
B|---------------|
G|---------------|
D|---------------|
A|---------------|
E|---------------|

E                       C#m7
 But out there somewhere
                  G#m7
Daylight finds you
               A9
If you keep belie__ving
D9
  So don't run
          E9
Don't hide
               D9
It will be__ alright

You'll see
        E9
Trust me
                C#9
I'll be the__re watching over you
            Gb   Gb/Bb         B  B/Bb
Just take a look throu__gh my e__yes
Abm7             Gb              Ebm7
  there's better place somewhere out there
Db          Gb   Gb/Bb        B  B/Bb
Just take a look throu__gh my e__yes
Abm7          Gb 
   Everything changes
Ebm7       Db                B
You'll be amazed what you'll fin__d
                  B 
(There's a better place)
Db                       Eb9
  If you look through my e__yes

E|---------------|
B|---------------|
G|------2p0------|
D|--0h2----------|
A|---------------|
E|---------------|

G         A          G        A
  All the things that you can change
G          A  G   F#m  G  Bm  A
 There's a meaning in everything
A        B         A       B
 And you will find all you need
A            B       A  B  C#9
  There's so much to understan__d
       Gb                 Gb/Bb        B  B/Bb
Take a look (take a look) throu__gh my e__yes
Abm7               Gb              Ebm7
  there's a better place somewhere out there
Db          Gb                 Gb/Bb      B  B/Bb
Just take a look (take a look) through my e__yes
Abm7             Gb 
  Everything changes
Ebm7       Db                B
You'll be amazed what you'll fin__d
                         Db
(You'll be amazed if you just take a look)
Gb   Gb/Bb        B  B/Bb 
Look throu__gh my e__yes 
Abm7               Gb              Ebm7   Db
  there's a better place somewhere out the__re                 
            Gb    Gb/Bb       B  B/Bb
Just take a look throu__gh my e__yes
Abm7         Gb
  Everything changes
Ebm7       Db                B
You'll be amazed what you'll fin__d
Db                       B
  If you look through my e__yes
Db                             B
  Just take a look through my e__yes
Db                       Eb
  If you look through my e__yes 
                        Eb      Eb 
  Take a look through my e__yes
Outros vídeos desta música
    10.318 exibições
      • ½ Tom
      • A
      • Bb
      • B
      • C
      • Db
      • D
      • Eb
      • E
      • F
      • F#
      • G
      • Ab
    • Adicionar à lista

    Afinação da cifra

    Afinador online

      0 comentários

      Ver todos os comentários

      Entre para o Cifra Club PRO

      Tenha acesso a benefícios exclusivos no App e no Site

      • Chega de anúncios

      • Badges exclusivas

      • Mais recursos no app do Afinador

      • Atendimento Prioritário

      • Aumente seu limite de lista

      • Ajude a produzir mais conteúdo

      Cifra Club Pro

      Aproveite o Cifra Club com benefícios exclusivos e sem anúncios
      Cifra Club Pro
      Aproveite o Cifra Club com benefícios exclusivos e sem anúncios
      OK