Cifra Club

Youll Be In My Heart

Phil Collins

Cifra: Principal (violão e guitarra)
Selo Cifra Club: esta cifra foi revisada para atender aos critérios oficiais da nossa Equipe de Qualidade.
tom: Db
Intro:
E|-2------------------------------------------------------|
B|-2------------------------------------------------------|
G|-3------------------------------------------------------|
D|-4--------6-6-6=s8s6p4-----------6-6-6=s8s6p4-----------|
A|-4---------------------6--4-------------------6--4------|
E|-2------------------------------------------------------|

Verse:
E|----------------------------------------------------------|
B|----------------------------------------------------------|
G|----------------------------6------------6---6------------|
D|-6-6s8=s6p4-------------6s8----8s6-------6---6------------|
A|------------4h=6-------------------------4---4------------|
E|-------------------------------------------------16\------|
Outros vídeos desta música
    145 exibições
      • ½ Tom
      • A
      • Bb
      • B
      • C
      • Db
      • D
      • Eb
      • E
      • F
      • F#
      • G
      • Ab
    • Adicionar à lista

    Afinação da cifra

    Afinador online

      0 comentários

      Ver todos os comentários

      Entre para o Cifra Club PRO

      Tenha acesso a benefícios exclusivos no App e no Site

      • Chega de anúncios

      • Badges exclusivas

      • Mais recursos no app do Afinador

      • Atendimento Prioritário

      • Aumente seu limite de lista

      • Ajude a produzir mais conteúdo

      Cifra Club Pro

      Aproveite o Cifra Club com benefícios exclusivos e sem anúncios
      Cifra Club Pro
      Aproveite o Cifra Club com benefícios exclusivos e sem anúncios
      OK