Cifra Club

Heroes And Villains

Powerman 5000

Cifra: Principal (violão e guitarra)
Selo Cifra Club: esta cifra foi revisada para atender aos critérios oficiais da nossa Equipe de Qualidade.
tom: G
E|-----------------------|
B|-----------------------|
G|-----------------------|
D|-----------------------|
A|-00-0-0-0-0-0-2-3-3-3--|
E|-00-0-0-0-0-0-2-3-3-3--|

VERSE
E|-------------------------------------------|
B|-------------------------------------------|
G|-------------------------------------------|
D|-5/7\5------------5/7\5-----------5/7-7-7--|
A|-3/5\3-0-3-5-3-0--3/5\3-0-3-5-3-0-3/5-5-5--|
E|-------0-3-5-3-0--------0-3-5-3-0----------|

CHORUS
E|-----------------------|
B|-----------------------|
G|-----------------------|
D|-----------------------|
A|-00-0-0-0-0-0-2-3-3-3--|
E|-00-0-0-0-0-0-2-3-3-3--|
Outros vídeos desta música
    0 exibições
      • ½ Tom
      • A
      • Bb
      • B
      • C
      • Db
      • D
      • Eb
      • E
      • F
      • F#
      • G
      • Ab
    • Adicionar à lista

    Afinação da cifra

    Afinador online

      0 comentários

      Ver todos os comentários

      Entre para o Cifra Club PRO

      Tenha acesso a benefícios exclusivos no App e no Site

      • Chega de anúncios

      • Badges exclusivas

      • Mais recursos no app do Afinador

      • Atendimento Prioritário

      • Aumente seu limite de lista

      • Ajude a produzir mais conteúdo

      Cifra Club Pro

      Aproveite o Cifra Club com benefícios exclusivos e sem anúncios
      Cifra Club Pro
      Aproveite o Cifra Club com benefícios exclusivos e sem anúncios
      Ops (: Contenido disponible sólo en portugués.
      OK