Cifra Club

Tá Chorando Por Quê?

Preto No Branco

Cifra: Principal (violão e guitarra)
tom: Ab (forma dos acordes no tom de G) Capotraste na 1ª casa
[Intro] C9  G/B  C9  G/B

[Dedilhado - Intro]

Parte 1 de 4
E|------------------------------------------|
B|------------------------------------------|
G|-0h2-2h4-4p2p0-----0-----0----------------|
D|-0---0---------0h2---2p0------------------|
A|---------------3-----3--------------------|
E|------------------------------------------|

Parte 2 de 4
E|------------------------------------------|
B|------------------------------------------|
G|-0h2-2h4-4p2p0---0------------------------|
D|-0---0---------0---0----------------------|
A|-3-------------2---2----------------------|
E|------------------------------------------|

Parte 3 de 4
E|------------------------------------------|
B|------------------------------------------|
G|-0h2-2/4-4/2p0-----0-----0----------------|
D|-0---0---------0h2---2p0------------------|
A|-2-------------3-----3--------------------|
E|------------------------------------------|

Parte 4 de 4
E|------------------------------------------|
B|------------------------------------------|
G|-0h2-2h4-4p2p0---0------------------------|
D|-0---0---------0---0----------------------|
A|-3-------------2---2----------------------|
E|------------------------------------------|

[Primeira Parte]

                C9
Tá chorando por   quê?
               G
Se você tem um   Deus
        G/B     C9    D4
Que cuida de você, oh oh
            G
E jamais te esqueceu
     G/B     C9
Ele sabe de tudo
D/F#                 Em7(9/11)
     Que você tá passando
      G/B    C9
E mandou te dizer
    D4           G    D/F#
Que Ele está cuidando

[Pré-Refrão]

          Em7(9)
Lembra de onde você veio
   D9(11)        C7M(9)
E aonde que você       chegou
           Em7(9)
Lembra de todos os livramentos
     D9(11)  C7M(9)
Que você já passou
                        G
Nem era para você tá aqui
                  D9
Mas Deus falou assim
             G/B  C9
Esse aí vou levantar
                  D4              G
E onde colocar a mão eu vou abençoar

[Refrão]

 G/B  C9        D4                G
Não chore quem cuida de você não dorme
 G/B  C9         D4                Em7(9)
Le___vanta, tem muita gente que te ama
         G7M/B    C9(11)  D4        G  D/F#  Em7
Deus mandou te dizer que vai acontecer
         D4       C9      D4      G
Deus mandou te falar que tudo vai   passar

[Pré-Refrão]

          Em7
Lembra de onde você veio
   D9(11)        C7M(9)
E aonde que você        chegou
           Em7
Lembra de todos os livramentos
     D9(11)  C7M(9)
Que você já passou
                        G
Nem era para você tá aqui
                  D9
Mas Deus falou assim
             G/B  C9
Esse aí vou levantar
                  D4              G
E onde colocar a mão eu vou abençoar

[Refrão]

 G/B  C9        D4                G
Não chore quem cuida de você não dorme
 G/B  C9         D4                Em7(9)
Le___vanta, tem muita gente que te ama
         G7M/B    C9(11)  D4        G  D/F#  Em7
Deus mandou te dizer que vai acontecer
         D4       C9(11)  D4      G
Deus mandou te falar que tudo vai   passar

 G/B  C9        D4                G
Não chore quem cuida de você não dorme
 G/B  C9         D4/F#             Em7(9)
Le___vanta, tem muita gente que te ama
         G7M/B    C9(11)  D4        G  D/F#  Em7
Deus mandou te dizer que vai acontecer
         D4       C9(11)  D4   
Deus mandou te falar que tudo vai passar

[Final] C9  Em7  G  Am7

[Tab - Violão 1]

Parte 1 de 3
E|------------------------------------------|
B|------------------------------------------|
G|-0h2-2h4-4p2p0-----0-----0----------------|
D|-0---0---------0h2---2p0------------------|
A|---------------3-----3--------------------|
E|------------------------------------------|

Parte 2 de 3
E|------------------------------------------|
B|------------------------------------------|
G|-0h2-2h4-4p2p0-----0----------------------|
D|-0---0---------0h2------------------------|
A|-3----------------------------------------|
E|---------------0--------------------------|

Parte 3 de 3
E|------------------------------------------|
B|------------------------------------------|
G|-0-0h2-2/4-4\2----------------------------|
D|-0-0---0-------0h2------------------------|
A|---------------0--------------------------|
E|-3----------------------------------------|

[Tab - Violão 2]

Parte 3 de 3 
E|-----3/5-5/7-5\---------------------------|
B|------------------------------------------|
G|-0h2-4/5-5/7-5\---------------------------|
D|------------------------------------------|
A|------------------------------------------|
E|------------------------------------------|

     D/F#        G
Que tudo vai passar
Composição de Fadi / Luã Freitas / Silas Simões
Colaboração e revisão:
  • Victor Alves
  • Norberto Alves
56.846 exibições
    • ½ Tom
    • A
    • Bb
    • B
    • C
    • Db
    • D
    • Eb
    • E
    • F
    • F#
    • G
    • Ab
  • Adicionar à lista

    0 comentários

    Ver todos os comentários

    Conseguiu tocar?

    1 Tocaram 1 Ainda não

    Grave um vídeo tocando Tá Chorando Por Quê? e nos envie!

    00:00 / 00:00
    Outros vídeos desta música
    Repetir Qualidade Automático
    Outros vídeos desta música
    00:00 / 00:00
    Automático

    Cifra Club Pro

    Aproveite o Cifra Club com benefícios exclusivos e sem anúncios
    Cifra Club Pro
    Aproveite o Cifra Club com benefícios exclusivos e sem anúncios
    OK