Cifra Club

Tá Chorando Por Quê?

Preto No Branco

Cifra: Principal (violão e guitarra)
Selo Cifra Club: esta cifra foi revisada para atender aos critérios oficiais da nossa Equipe de Qualidade.
tom: Ab (forma dos acordes no tom de G) Capotraste na 1ª casa
[Intro] C9  G/B  C9  G/B

[Tab - Introdução]

Parte 1 de 3
                    C9        
E|-----------------------------------------------------|
B|-----------------------------------------------------|
G|-0h2--2h4--4p2p0------0-----0----0h2--0h4--4p2p0-----|
D|-0----0----0------0h2---2p0------0----0----0---------|
A|------------------3--------------3-------------------|
E|-----------------------------------------------------|

Parte 2 de 3
     G/B                    C9
E|-----------------------------------------------------|
B|-----------------------------------------------------|
G|-----0--------0h2-2/4-4\2p0------0-----0-------------|
D|---0---0------0---0---0------0h2---2p0---------------|
A|---2---2------2--------------3-----------------------|
E|-----------------------------------------------------|

Parte 3 de 3
   C9               G/B
E|-----------------------------------------------------|
B|-----------------------------------------------------|
G|-0h2--0h4--4p2p0----0--------------------------------|
D|-0----0----0------0---0------------------------------|
A|-3----------------2---2------------------------------|
E|-----------------------------------------------------|

[Primeira Parte]

                C9
Tá chorando por   quê?
               G
Se você tem um   Deus
        G/B     C9    D4(9)
Que cuida de você, oh oh
            G
E jamais te esqueceu
     G/B     C9
Ele sabe de tudo
D/F#                 Em7(9)
     Que você tá passando
      G/B    C9
E mandou te dizer
    D4(9)        G    D/F#
Que Ele está cuidando

[Tab - Primeira Parte]

Parte 1 de 4
   C9               G                  G/B
E|------------------3---3--2----2------3---------------|
B|-3------3-----3---3---3--2----2------3---------------|
G|-0----0-----0-----0---0--0h2--2p0----0---------------|
D|-2--2-----2-------0---0--0----0------0---------------|
A|-3----------------2------------------2---------------|
E|------------------3----------------------------------|
                    ↓   ↑   ↓    ↓     ↓
Parte 2 de 4
   C9          D4(9)  G                     G/B
E|------------------------------------------3----------|
B|-3--------3---3-----------3--3-----3------3----------|
G|-0----0-------0---------0----0h2---2p0----0----------|
D|-2--2---2-----4-------0------0-----0------0----------|
A|-3------------5---------------------------2----------|
E|--------------------3--------------------------------|
                                            ↓
Parte 3 de 4
   C9           D/F#     Em7(9)              G/B
E|------------------------------------5-----------------|
B|-3--------3--------3---------3--------3-----3---------|
G|-0----0-------2------------0----0-----------0---------|
D|-2--2---2-----0--0-------4--------4---------0---------|
A|-3------------------------------------------2---------|
E|--------------2--------0------------------------------|

Parte 4 de 4
   C9          D4(9)  G                    D/F#
E|-----------------------------------------------------|
B|-3--------3---3---------3------3---------3-----------|
G|-0----0-------0-------0------0------0----2-----------|
D|-2--2---2-----4-----0------0------0------0-----------|
A|-3------------5--------------------------------------|
E|------------------3----------------------2-----------|

[Pré-Refrão]

          Em7
Lembra de onde você veio
   D4(9)             C9  C6(9)  C9
E aonde que você chegou
           Em7
Lembra de todos os livramentos
     D4(9)      C9  C6(9)  C9
Que você já passou

                        G
Nem era para você tá aqui
                  D4(9)
Mas Deus falou assim
             G/B  C9
Esse aí vou levantar
                  D4(9)           G
E onde colocar a mão eu vou abençoar

[Refrão]

      C9        D4                G
Não chore quem cuida de você não dorme
 G/B  C9         D4                Em7 
Le___vanta, tem muita gente que te ama
                  C9 
Deus mandou te dizer 
     D4        G  D/F#  Em7
que vai acontecer
         D9       C9 
Deus mandou te falar 
     D4      G 
que tudo vai   passar

[Pré-Refrão]

          Em7
Lembra de onde você veio
   D4(9)             C9
E aonde que você chegou
           Em7
Lembra de todos os livramentos
     D4(9)      C9
Que você já passou
                        G
Nem era para você tá aqui
                  D4(9)
Mas Deus falou assim
             G/B  C9
Esse aí vou levantar
                  D4(9)           G
E onde colocar a mão eu vou abençoar

[Refrão Final]

      C9        D4                G
Não chore quem cuida de você não dorme
 G/B  C9         D4                Em7 
Le___vanta, tem muita gente que te ama
                  C9 
Deus mandou te dizer 
     D4        G  D/F#  Em7
que vai acontecer
         D9       C9 
Deus mandou te falar 
     D4      G 
que tudo vai   passar

  C9        D4                G
Não chore quem cuida de você não dorme
 G/B  C9         D4                Em7 
Le___vanta, tem muita gente que te ama
                  C9 
Deus mandou te dizer 
     D4        G  D/F#  Em7
que vai acontecer
         D9       C9 
Deus mandou te falar 
     D4      (Frase) 
que tudo vai passar

[Final] C9  Em7  G  Am7

     D/F#        G
Que tudo vai passar

[Tab - Frase Final]

Parte 1 de 2
   G                C9        
E|-----------------------------------------------------|
B|-----------------------------------------------------|
G|-0h2--2h4--4p2p0------0-----0----0h2--0h4--4p2p0-----|
D|-0----0----0------0h2---2p0------0----0----0---------|
A|------------------3--------------3-------------------|
E|-----------------------------------------------------|

Parte 2 de 2
   Em7       G                     Am7  D/F#  G
E|---------------------------------0----x-----3--------|
B|-----------0---------------------1----3-----3--------|
G|-----0-----0---0h2--2h4--4p2p0---0----2-----0--------|
D|-0h2-------0---0----0----0-------2----0-----0--------|
A|---------------------------------0----x-----2--------|
E|-0---------3--------------------------2-----3--------|


Outros vídeos desta música
772.597 exibições
  • Simplificar cifra
    • ½ Tom
    • A
    • Bb
    • B
    • C
    • Db
    • D
    • Eb
    • E
    • F
    • F#
    • G
    • Ab
  • Adicionar à lista

Afinação da cifra

Afinador online

    0 comentários

    Ver todos os comentários

    Entre para o Cifra Club PRO

    Tenha acesso a benefícios exclusivos no App e no Site

    • Chega de anúncios

    • Mais recursos no app do Afinador

    • Atendimento Prioritário

    • Aumente seu limite de lista

    • Ajude a produzir mais conteúdo

    Capítulos
    • Apresentação
    • Tocando a Música
    • Acordes Introdução
    • Tocando Introdução
    • Ensinando Dedilhado Introdução
    • Acordes Primeira Parte
    • Tocando Primeira Parte
    • Ensinando Dedilhado Primeira Parte
    • Acordes Pré-Refrão
    • Tocando Pré-Refrão
    • Ensinando Ritmo Pré-Refrão
    • Acordes Refrão
    • Tocando Refrão
    • Ensinando Ritmo Refrão
    • Acorde Refrão Final
    • Tocando Refrão Final
    • Ensinando Dedilhado Refrão Final
    • Encerramento

    Cifra Club Pro

    Aproveite o Cifra Club com benefícios exclusivos e sem anúncios
    Cifra Club Pro
    Aproveite o Cifra Club com benefícios exclusivos e sem anúncios
    OK