Cifra Club

É Tarde Demais

Raça Negra

Cifra: Principal (violão e guitarra)
Selo Cifra Club: esta cifra foi revisada para atender aos critérios oficiais da nossa Equipe de Qualidade.
tom: E
[Intro] E  F#m  E  F#m

Parte 1 de 3
   E
E|---------------------------------------------------|
B|-----0--------0---0--------------------------------|
G|-1h2---1----1--------2---1-------------------------|
D|-2-------------------------------------------------|
A|---------------------------------------------------|
E|-0-------0------0------0---------------------------|

Parte 2 de 3
   F#m7    
E|---------------------------------------------------|
B|---0h2-------2---2-0-------------------------------|
G|-2-----2---2-----------2---------------------------|
D|-2-------------------------------------------------|
A|---------------------------------------------------|
E|-2-------2-----2-----2-----------------------------|

Parte 3 de 3
   F#m7
E|----5-4--2-----------------------------------------|
B|----2------2---------------------------------------|
G|-2--2--------2--1----------------------------------|
D|-2-----------------4-------------------------------|
A|---------------------------------------------------|
E|-2-------------------------------------------------|

[Primeira Parte]

Parte 1 de 2
   E7M              F#m
E|---------------------------------------------------|
B|-0---0---0---0----2---2---2---2--------------------|
G|-1---1---1---1----2---2---2---2--------------------| (4x)
D|-1-1-1-1-1-1-1-1--4-4-4-4-4-4-4-4------------------|
A|---------------------------------------------------|
E|-0---0---0---0----2---2---2---2--------------------|

Parte 2 de 2
   E7M             B/D#
E|---------------------------------------------------|
B|-0---0---0---0---4---------------------------------|
G|-1---1---1---1---4---------------------------------|
D|-1-1-1-1-1-1-1---4---------------------------------|
A|-----------------6---------------------------------|
E|-0---0---0---0-------------------------------------|

E            F#m
  Olha só você 
                 E
Depois de me perder 
           F#m
Veja só você, que pena 
E                     F#m
  Você não quis me ouvir 
                 E
Você não quis saber 
                F#m
Desfez do meu amor 
         E         B/D#
Que pena, que pena 

[Pré-Refrão]

Parte 1 de 3
   C#m              G#m
E|---------------------------------------------------|
B|-5---5---5---5----4---4---4---4--------------------|
G|-6---6---6---6----4---4---4---4--------------------|
D|-6-6-6-6-6-6-6-6--6-6-6-6-6-6-6-6------------------|
A|-4---4---4---4-------------------------------------|
E|------------------4---6---6---4--------------------|

Parte 2 de 3
   A                G#m
E|---------------------------------------------------|
B|-2---2---2---2----4---4---4---4--------------------|
G|-2---2---2---2----4---4---4---4--------------------|
D|-2-2-2-2-2-2-2-2--6-6-6-6-6-6-6-6------------------|
A|-0---0---0---0-------------------------------------|
E|------------------4---6---6---4--------------------|

Parte 3 de 3
   A                B7  B7(13) B7
E|------------------5---4------5---5-5---------------|
B|-2---2---2---2----4---4------4---4-4---------------|
G|-2---2---2---2----2---2------2---------------------|
D|-2-2-2-2-2-2-2-2-----------------------------------|
A|-0---0---0---0----2---2------2---------------------|
E|---------------------------------------------------|

C#m                           G#m 
    Hoje é você quem está sofrendo amor 
 A                        G#m
Hoje sou eu quem não te quer 
C#m                              G#m  
    O meu coração já tem um novo amor 
A                           B7  B7(13)  B7
  Você pode fazer o que quiser 

[Refrão]

Parte 1 de 6
   E
E|---------------------------------------------------|
B|-0---0---0--0-0-----0------------------------------|
G|-1---1---1--1-1-----1------------------------------|
D|-2---2---2--2---2----------------------------------|
A|-2----------2--------------------------------------|
E|-------0----------0--------------------------------|

Parte 2 de 6
   G#m    
E|----------------------------------------------------|
B|-4---4---4--4-4-----4-------------------------------|
G|-4---4---4--4-4-----4-------------------------------|
D|-6---6---6--6---6-----------------------------------|
A|-6----------6---------------------------------------|
E|-------4----------4---------------------------------|

Parte 3 de 6
   A
E|----------------------------------------------------|
B|-2---2---2--2-2-----2-------------------------------|
G|-2---2---2--2-2-----2-------------------------------|
D|-2---2---2--2---2-----------------------------------|
A|-0----------0---------------------------------------|
E|-------0----------0---------------------------------|

Parte 4 de 6
   B7
E|----------------------------------------------------|
B|-4---4---4--4-4-----4-------------------------------|
G|-2---2---2--2-2-----2-------------------------------| (2x)
D|-4---4---4--4---4-----------------------------------|
A|-2----------2---------------------------------------|
E|-------2----------2---------------------------------|
 
Parte 5 de 6
   F#m
E|----------------------------------------------------|
B|-2---2---2--2-2-----2-------------------------------|
G|-2---2---2--2-2-----2-------------------------------|
D|-4---4---4--4---4-----------------------------------|
A|-4----------4---------------------------------------|
E|-------2----------2---------------------------------|

Parte 6 de 6
   E
E|----------------------------------------------------|
B|-0--------------------------------------------------|
G|-1--------------------------------------------------|
D|-2--------------------------------------------------|
A|----------------------------------------------------|
E|-0--------------------------------------------------|

            E                     G#m
Você jogou fora o amor que eu te dei 
                A
O sonho que sonhei 
             B7
Isso não se faz 
            E                G#m
Você jogou fora, a minha ilusão 
            A              B7
A louca paixão, é tarde demais 
     E         F#m
Que pena, que pena amor
     E         F#m
Que pena, que pena amor

[Solo] E  F#m  E  F#m

Parte 1 de 2
E|-------4--5-7--7/9\7--4--4-7-5--4-4------------------|
B|---5-7------------------------------7-7--5-5--4-4----|
G|-6---------------------------------------------------|
D|-----------------------------------------------------|
A|-----------------------------------------------------|
E|-----------------------------------------------------|

Parte 2 de 2
E|--------------------------4-------4-5-7--4-5-7--12-9-|
B|---4------------5-5---5-7---5-7----------------------|
G|-6----4-4--6--6-----6--------------------------------|
D|-----------------------------------------------------|
A|-----------------------------------------------------|
E|-----------------------------------------------------|

[Pré-Refrão]

Parte 1 de 4
   C#m
E|----------------------------------------------------|
B|-5---5---5--5-5-----5-------------------------------|
G|-6---6---5--5-5-----5-------------------------------|
D|-6---6---6--6---6-----------------------------------|
A|-4--------------------------------------------------|
E|-------4----------4---------------------------------|

Parte 2 de 4
   G#m
E|----------------------------------------------------|
B|-4---4---4--4-4-----4-------------------------------|
G|-4---4---4--4-4-----4-------------------------------|
D|-6---6---6--6---6-----------------------------------|
A|-6----------6---------------------------------------|
E|-------4----------4---------------------------------|

Parte 3 de 4
  A
E|----------------------------------------------------|
B|-2---2---2--2-2-----2-------------------------------|
G|-2---2---2--2-2-----2-------------------------------|
D|-2---2---2--2---2-----------------------------------|
A|-0----------0---------------------------------------|
E|-------0----------0---------------------------------|

Parte 4 de 4
   B7
E|----------------------------------------------------|
B|-4---4---4--4-4-----4-------------------------------|
G|-2---2---2--2-2-----2-------------------------------|
D|-4---4---4--4---4-----------------------------------|
A|-2----------2---------------------------------------|
E|-------2----------2---------------------------------|

C#m                         G#m 
  Hoje é você quem está sofrendo amor 
 A                        G#m
Hoje sou eu quem não te quer 
C#m                        G#m  
  O meu coração já tem um novo amor 
A                           B7
  Você pode fazer o que quiser 

[Refrão]

            E                     G#m
Você jogou fora o amor que eu te dei 
                A
O sonho que sonhei
             B7
Isso não se faz 
            E                G#m
Você jogou fora, a minha ilusão 
            A              B7
A louca paixão, é tarde demais 
     E         F#m
Que pena, que pena amor
     E         F#m
Que pena, que pena amor
     E         F#m
Que pena, que pena amor
     E
Que pena
Outros vídeos desta música
1.761.886 exibições
  • Simplificar cifra
    • ½ Tom
    • A
    • Bb
    • B
    • C
    • Db
    • D
    • Eb
    • E
    • F
    • F#
    • G
    • Ab
  • Adicionar à lista

Afinação da cifra

Afinador online

    0 comentários

    Ver todos os comentários

    Entre para o Cifra Club PRO

    Tenha acesso a benefícios exclusivos no App e no Site

    • Chega de anúncios

    • Mais recursos no app do Afinador

    • Atendimento Prioritário

    • Aumente seu limite de lista

    • Ajude a produzir mais conteúdo

    Capítulos
    • Apresentação
    • Intro
    • Primeira Parte
    • Pré-Refrão
    • Refrão
    • Pré-Refrão
    • Refrão
    • Encerramento

    Cifra Club Pro

    Aproveite o Cifra Club com benefícios exclusivos e sem anúncios
    Cifra Club Pro
    Aproveite o Cifra Club com benefícios exclusivos e sem anúncios
    OK