Cifra Club

Vida Cigana

Raça Negra

Cifra: Principal
exibições 378.811
Tom: G
[Intro]  G  Am  C  D7

      Am          Am            D    D                             Am
E|---------------------7-5----------10-10-10-8-8-7-7-------7-7-8------|
B|-------------------5-----8-8-7-7-------------------10-10------------|
G|-------------4-5-7---------------------------------------------9----|
D|-----------7--------------------------------------------------------|
A|---------7----------------------------------------------------------|
E|-0-5-7-8------------------------------------------------------------|

        D
E|-10-8-7-8-7---------------------------------------------------------|
B|------------10-8-7---------------------7--------------5-------------|
G|-------------------9-7--------------------------4-5-7---7-----------|
D|-----------------------10-9-7-9-7---------4-5-7---------------------|
A|----------------------------------10-9------------------------------|
E|--------------------------------------------------------------------|

G                        Bm
Oh meu amor, não fique triste
          C                   G
Saudade existe pra quem sabe ter
              Em                   Bm
Minha vida cigana me afastou de você
           C                      F
Por algum tempo eu vou ter que viver
       D         G
Por aqui, longe de você
 Em             Am      D        G
Longe do seu carinho e do seu olhar
            Am                 Bm
Que me acompanha já tem muito tempo
          C             G
Penso em você a cada momento
          Em                 Bm
Sou água de rio que vai para o mar
           C                   F
Sou nuvem nova que vem pra molhar
      D             G
Essa noiva que é você
  Em            Am
Pra mim você é linda
D              G
A dona do meu coração
          Am              Bm
Que bate tanto quando te vê
        C                 G
É a verdade que me faz viver
G          Am              Bm
O meu coração bate tanto quando te vê
     C                  G
É a verdade que me faz viver

[Solo]  G  Bm  C  D

G          Em              Bm
O meu coração bate tanto quando te vê
     C                    G
É a verdade que me faz viver
Acordes para:

    0 comentários

      mostrar mais comentários

      Conseguiu tocar?

      17tocaram1ainda não

      Grave um vídeo tocando Vida Cigana e mande pra gente!

      00:00 / 00:00
      outros vídeos desta música
      repetirqualidadeautomática
      Outro vídeos desta música
        00:00 / 00:00
        automática
        OK