Cifra Club

Aprenda

Weasel Face

Ramones

Tab de baixo: Principal
(intro e refrão)

G|-----------------------------------------|
D|-----------------------------------------|
A|-----------------------------------------|
E|-5--5-0-0--5--5-0-0--5--5-0--0-0-0-0-0-0-|

(verso)
G|----------------------|
D|----------------------|
A|-7-7-7-7-7-7-7-3----5-|
E|------------------3---|

(ponte)
G|-----------------------------|
D|-----------------------------|
A|-----------------------------|
E|-5-5-5-5-6-5-5-8-8-8-8-8-8-8-|
Composição de Dee Dee Ramone / Joey Ramone / Johnny Ramone / Tommy Ramone
Colaboração e revisão:
  • Aerson Moreira
118 exibições

0 comentários

Mostrar mais comentários

Conseguiu tocar?

0 Tocaram 0 Ainda não

Grave um vídeo tocando Weasel Face e mande pra gente!

00:00 / 00:00
outros vídeos desta música
repetir qualidade Automático
Outros vídeos desta música
00:00 / 00:00
Automático

Cifra Club Pro

Aproveite o Cifra Club com benefícios exclusivos e sem anúncios
7 dias grátis
Cifra Club Pro
Aproveite o Cifra Club com benefícios exclusivos e sem anúncios
7 dias grátis
OK