Cifra Club

Got Me On The Line

Ratt

Cifra: Principal (violão e guitarra)
Selo Cifra Club: esta cifra foi revisada para atender aos critérios oficiais da nossa Equipe de Qualidade.
tom: Am
E|E|-------------------------------------------------------------------------------||
                             GOT ME ON THE LINE - RATT
E|E|-------------------------------------------------------------------------------||
Tabbed by: cjog210

Tuning: Eb Ab Db Gb Bb Eb

E|---------------------------------------------------------------------------|
B|---------------------------------------------------------------------------|
G|---9--7---5-5------------5-7-----------9-7---5-5------------5-7---7/9\7-5-7|
D|---9--7---5-5--5--7-7----5-7--3-3--5---9-7---5-5--5--7-7----5-7------------|
A|---7--5---3-3--5--7-7----3-5--3-3--5---7-5---3-3--5--7-7----3-5---5/7\5-3-5|
E|---------------3--5-5---------1-1--3--------------3--5-5-------------------|

E|---------------------------------------------------------------------------|
B|-8-7-----------------------------------------------------------------------|
G|-7-7-------------2---------------------------------------------------------|
D|------------0-2--2---------------------------------------------------------|
A|------0-2-3----3-0---------------------------------------------------------|
E|---------------------------------------------------------------------------|



************************************

| /   slide up
| \   slide down
| h   hammer-on
| p   pull-off
| ~   vibrato
| +   harmonic
| x   Mute note
| b   Bend
| pb  Pre-bend
| br  Bend release
| pbr Pre-bend release
| brb Bend release bend
Outros vídeos desta música
    23 exibições
      • ½ Tom
      • Am
      • Bbm
      • Bm
      • Cm
      • C#m
      • Dm
      • Ebm
      • Em
      • Fm
      • F#m
      • Gm
      • G#m
    • Adicionar à lista

    Afinação da cifra

    Afinador online

      0 comentários

      Ver todos os comentários

      Entre para o Cifra Club PRO

      Tenha acesso a benefícios exclusivos no App e no Site

      • Chega de anúncios

      • Mais recursos no app do Afinador

      • Atendimento Prioritário

      • Aumente seu limite de lista

      • Ajude a produzir mais conteúdo

      Cifra Club Pro

      Aproveite o Cifra Club com benefícios exclusivos e sem anúncios
      Cifra Club Pro
      Aproveite o Cifra Club com benefícios exclusivos e sem anúncios
      OK