Cifra Club

Polaris

Jimmy Eat World

Cifra: Principal (violão e guitarra)
tom: Eb
base intro parte 1
E||------3----3--------3----3--------1----1--------1----1----|
B||---------1---1---------1---1---------1---1---------1---1--|
G||----3--3------3---3--3------3---3--3------3---3--3------3-|<---2x
D||--3-------------3-------------3-------------3-------------|
A||----------------------------------------------------------|
E||----------------------------------------------------------|


obs. depois q toca a 1ª vez a base o baixo entra junto fazendo a base das notas
base baixo
G||---------------------------------------------------------|
D||---------------------------------------------------------|
A||--3-3-3-1-3-3--3-3-3-1-3-3-------------------------------|
E||-----------------------------6-6-6-4-6-6--6-6-6-4-6-6----|


G||---------------------------------------------------------|
D||---------------------------------------------------------|
A||-----------------------------6-6-6-4-6-6--6-6-6-4-6-6----|
E||--4-4-4-2-4-4--4-4-4-2-4-4-------------------------------|


continuação intro
E||------------------------------------6-----4---------------|
B||------4-----4---------4----4-------------------6----4-4---|
G||----3-----3---3-----3----3-------0-----0-----0----0-------|
D||--1-----1-------1-1----1------0------0-----0----0---------|
A||----------------------------------------------------------|
E||----------------------------------------------------------|
                                                         |_____>aqui começa o solo da intro

solo intro
E||--6~--------6~-------2/4~-------2/3~------|
B||-----6/8~-8---4/6~-6-----2/4~-4-----2/3~--|
G||------------------------------------------|
D||------------------------------------------|
A||------------------------------------------|
E||------------------------------------------|

Cm5                           B5
I'll say it straight and plain
                      Ab5
I know I've made mistakes
                     Eb5
I've always been afraid

I've always been afraid

Cm                       B5
A thousand nights or more
                        Ab5
I travelled east and north
                    Eb5
Please answer the door


Can you tell me

Cm5            B5            Ab5
You say that love goes anywhere
Cm5                  B5                           Ab5            
In your darkest time, it's just enough to know it's there
cm5                B5        G#5          
When you go, I'll let you be
cm5               B5                G#5 
But you're killing everything in me


Cm5                   B
Get down on your knees
                  Ab5
Whisper what I need
             Eb5
Something pretty

Something pretty


Cm5                      B    
I feel that when I'm old
                      Ab5
I'll look at you and know
                      Eb5         
The world was beautiful


Can you tell me

Cm5            B5            Ab5
You say that love goes anywhere
Cm5                  B5                           Ab5            
In your darkest time, it's just enough to know it's there
cm5                B5        G#5          
When you go, I'll let you be
cm5               B5                G#5 
But you're killing everything in me

Cm5                                  Ebm5
I'm done, there's nothing left to show
                     Bb5
Try but I can't let go
                                   Ab5 
Are you happy where you're standing still?

Do you really want the sugar pill?
Cm5                                Eb5
I'll wake up tomorrow and I'll start
                            Bb5 
To another, it feels so hard
                                 Ab5
As a train approaches, gare du nord

As I'm sure your kiss remains employed

Am I only dreaming?

Cm5            B5            Ab5
You say that love goes anywhere
Cm5                  B5                           Ab5            
In your darkest time, it's just enough to know it's there
cm5                B5        G#5          
When you go, I'll let you be
cm5               B5                G#5 
But you're killing everything in me
Cm5           B5           Ab5
When you go, I'll let you be
Cm5           B5                  Ab5
But you're killing everything in me
00:00 / 00:00
Outros vídeos desta música
Repetir
Outros vídeos desta música
Composição de Jimmy Eat World
Colaboração e revisão:
  • Rodolfo Vitorino
1.350 exibições
    • ½ Tom
    • A
    • Bb
    • B
    • C
    • Db
    • D
    • Eb
    • E
    • F
    • F#
    • G
    • Ab
  • Adicionar à lista

    0 comentários

    Ver todos os comentários

    Entre para oCifra Club PRO

    Tenha acesso a benefícios exclusivos no App e no Site

    • Chega de anúncios

    • Prioridade de compra em lançamentos

    • Mais recursos no app do Afinador

    • Atendimento Prioritário

    • Descontos nos produtos Cifra Club

    • Ajude a produzir mais conteúdo

    00:00 / 00:00

    Cifra Club Pro

    Aproveite o Cifra Club com benefícios exclusivos e sem anúncios
    Cifra Club Pro
    Aproveite o Cifra Club com benefícios exclusivos e sem anúncios
    OK