Cifra Club

Aprenda

É Preciso Saber Viver

Roberto Carlos

Cifra: Principal (violão e guitarra)
Quer fazer aulas de música com a gente? Responda essas perguntas
e nos ajude nesse projeto! →
tom: F
[Primeira Parte]

        F
Quem espera que a vida
      F7M
Seja feita de ilusão
       F7
Pode até ficar maluco
      Bb
Ou viver na solidão
      Bbm6
É preciso ter cuidado
          F            Dm7
Pra mais tarde não sofrer
G7         Bb       C7
É preciso saber viver

      F
Toda pedra no caminho
      F7M
Você deve retirar
       F7
Numa flor que tem espinhos
      Bb
Você pode se arranhar
      Bbm6
Se o bem e o mal existem
      F         Dm7
Você pode escolher
G7         Bb       C7
É preciso saber viver

[Refrão]

Bb          F       Dm7
É preciso saber viver
Bb          F       Dm7
É preciso saber viver
Bb          F       Dm7
É preciso saber viver
 G7         
Saber viver
 Bb      C7
Saber viver

[Solo] F  F7M  F7  Bb  Bbm6 
       F  Dm  G  Bb  C7 
       F  F7M  F7  Bb  Bbm6 
       F  Dm  G  Bb  C7 

E|------10-8-10-------------------10-8-10-13|
B|-8/10---------8/10---------8/10-----------|
G|-------------------10~--9~----------------|
D|------------------------------------------|
A|------------------------------------------|
E|------------------------------------------|

E|-15-13-15b17--15-13-15--------------------|
B|-----------------------15~----------------|
G|------------------------------------------|
D|------------------------------------------|
A|------------------------------------------|
E|------------------------------------------|

E|-13------------13--8/10-8-----------------|
B|----14~--13/14------------10-8b10r8-------|
G|------------------------------------10-7--|
D|-----------------------------------------9|
A|------------------------------------------|
E|------------------------------------------|

E|------------------------------------------|
B|-----------8------------------------------|
G|-0---0-0---------0--8--8--8--8------------|
D|-7h9---7h9---7h9----7--7--7--7------------|
A|--------------------10-10-10-10-----------|
E|--------------------8--8--8--8------------|

[Primeira Parte]

      F
Toda pedra no caminho
      F7M
Você pode retirar
       F7
Numa flor que tem espinhos
      Bb
Você pode se arranhar
      Bbm6
Se o bem e o mal existem
      F         Dm7
Você pode escolher
G7         Bb         C7
É preciso saber viver

[Refrão]

Bb          F       Dm7
É preciso saber viver
Bb          F       Dm7
É preciso saber viver
Bb          F       Dm7
É preciso saber viver
 G7         
Saber viver
 Bb      C7
Saber viver

Bb          F       Dm7
É preciso saber viver
Bb          F       Dm7
É preciso saber viver
Bb          F       Dm7
É preciso saber viver
 G7         
Saber viver
 Bb      C7  F
Saber viver
Composição de Erasmo Carlos / Roberto Carlos
408.909 exibições
    • ½ Tom
    • A
    • Bb
    • B
    • C
    • Db
    • D
    • Eb
    • E
    • F
    • F#
    • G
    • Ab
  • Adicionar à lista

    0 comentários

    Ver todos os comentários

    Conseguiu tocar?

    31 Tocaram 7 Ainda não

    Grave um vídeo tocando É Preciso Saber Viver e nos envie!

    00:00 / 00:00
    Outros vídeos desta música
    Repetir Qualidade Automático
    Outros vídeos desta música
    00:00 / 00:00
    Automático

    Cifra Club Pro

    Aproveite o Cifra Club com benefícios exclusivos e sem anúncios
    Cifra Club Pro
    Aproveite o Cifra Club com benefícios exclusivos e sem anúncios
    OK