Enviar cifraEntrar

Eu Te Amo, Te Amo, Te Amo

Roberto Carlos

Cifra: Principal
exibições 309.346
Tom: A Afinação: Eb Ab Db Gb Bb Eb
   F#                 C#       B                    F#
   Tanto tempo longe de você... Quero ao menos lhe falar
                   C#        B                     F#
A distância não vai impedir   meu amor de lhe encontrar
Bm               F#m           Bm                 F#m
Cartas já não adiantam mais,    quero ouvir a sua voz
Bm               F#m                        D
Vou telefonar dizendo que eu estou quase morrendo
                C#
de saudade de você


E|-------------------------|
B|-------------------------|
G|-------------------------|
D|---3-4-6-6-4-3-----------| (2x)
A|-4-------------4---------|
E|-------------------------|


F#            B             F#             C#
   Eu te amo,   eu te amo,    eu te amo
F#                       C#         B                     F#
   Eu não sei por quanto tempo eu   tenho ainda que esperar
                  C#          B                   F#      Bm
Quantas vezes eu até chorei   pois não pude suportar
                F#m      Bm                 F#m   Bm
Para mim não adianta      tanta coisa sem você
                 F#m          A             D
E então me desespero, por favor meu bem eu quero
                 C#
sem demora lhe falar


E|-------------------------|
B|-------------------------|
G|-------------------------|
D|---3-4-5-5-4\3-----------| (2x)
A|-4-------------4---------|
E|-------------------------|



F#             B            F#           F#7
   Eu te amo,   eu te amo,    eu te amo
Bm            E              A
Mas o dia que eu puder lhe encontrar
            F#m              Bm               D
Eu quero contar o quanto sofri por todo esse tempo
                  C#
que eu quis lhe falar


E|-------------------------|
B|-------------------------|
G|-------------------------|
D|---3-4-5-5-4\3-----------| (2x)
A|-4-------------4---------|
E|-------------------------|



F#             B            F#             C#
   Eu te amo,   eu te amo,    eu te amo

Solo: F#  C#  B  F#  C#  B  F#  Bm

                 F#m          Bm                   F#m   Bm
Cartas já não adiantam mais,    quero ouvir a sua voz
                 F#m                        D
Vou telefonar dizendo que eu estou quase morrendo
                C#
de saudade de você


E|-------------------------|
B|-------------------------|
G|-------------------------|
D|---3-4-5-5-4\3-----------| (2x)
A|-4-------------4---------|
E|-------------------------|


F#             B            F#             F#7
   Eu te amo,   eu te amo,    eu te amo
Bm             E                 A
Mas o dia que eu puder lhe encontrar
            F#m             Bm                D
Eu quero contar o quanto sofri por todo esse tempo
                   C#
que eu quis lhe falar


E|-------------------------|
B|-------------------------|
G|-------------------------|
D|---3-4-5-5-4\3-----------| (2x)
A|-4-------------4---------|
E|-------------------------|


F#             B            F#            C#
   Eu te amo,   eu te amo,    eu te amo
F#             B            F#
   Eu te amo,   eu te amo,    eu te amo
  • 1
  • 2
  • 3
  • 4
  • 5
  • 6
  • 7
  • 8
  • 9
  • 10
  • 11
  • 12
    Acordes para:

      0 comentários

        mostrar mais comentários

        Conseguiu tocar?

        8tocaram1ainda não

        Grave um vídeo tocando Eu Te Amo, Te Amo, Te Amo e mande pra gente!

        00:00 / 00:00
        outros vídeos desta música
        repetirqualidadeautomática
        • automática
        Outro vídeos desta música
          00:00 / 00:00
          automática
          • automática
          Acordes para:violão e guitarra
          dificuldadeexibiçõescontribuições
          1 versão de Partiturasformatodownloadscontribuição
          fecharplay/pause subir/descer velocidade
            acordes
            fechar
            OK
            Feedback