Cifra Club

Exercícios de Sincronismo

Roger Franco

Cifra: Principal (violão e guitarra)
tom: A
Cromatismo em Semicolcheia:

E|---------------------------------------------------|
B|---------------------------------------------------|
G|------------------------------------------------5-6|
D|--------------------------------9-8-7-6-5-6-7-8----|
A|----------------5-6-7-8-9-8-7-6--------------------|
E|9-8-7-6-5-6-7-8------------------------------------

E|----------------------------5-6-7-8-9-8-7-6--------|
B|------------9-8-7-6-5-6-7-8-----------------9-8-7-6|
G|7-8-9-8-7-6----------------------------------------
D|---------------------------------------------------|
A|---------------------------------------------------|
E|---------------------------------------------------|

E|---------------------------------------------------|
B|5-6-7-8--------------------------------------------
G|--------5-6-7-8-9-8-7-6----------------------------|
D|------------------------9-8-7-6-5-6-7-8------------|
A|----------------------------------------5-6-7-8-9-8|
E|---------------------------------------------------|

E|---------------------------------------------------|
B|---------------------------------------------------|
G|---------------------------------------------------|
D|---------------------------------------------------|
A|7-6------------------------------------------------
E|----9-8-7-6-5-6-7-8-9-8-7-6-5-6-7-8-5~-------------|

Pentatônica em Sextina:

E|11-8-----------------------------------------------
B|-----11-8------11-8--------------------------------|
G|----------10-8------10-8------10-8-----------------|
D|-------------------------10-8------10-8------10-8--|
A|----------------------------------------10-8-------|
E|---------------------------------------------------|

E|---------------------------------------------------|
B|---------------------------------------------------|
G|----------------------------------------10-8-------|
D|-------------------------10-8------10-8------10-8--|
A|10-8------10-8------10-8------10-8-----------------
E|-----11-8------11-8--------------------------------|

E|---------------------------------------------------|
B|-----11-8------11-8-11b13~-------------------------|
G|10-8------10-8-------------------------------------
D|---------------------------------------------------|
A|---------------------------------------------------|
E|---------------------------------------------------|

Escala Menor em Sextina:

E|11-10-8-11-10-8------------------------------------
B|----------------11-9-8-11-9-8----------------------|
G|------------------------------10-8-7-10-8-7--------|
D|--------------------------------------------10-8-6-|
A|---------------------------------------------------|
E|---------------------------------------------------|

E|---------------------------------------------------|
B|---------------------------------------------------|
G|-------12-10-8-12-10-8-----------------13-12-10-13-|
D|10-8-6-----------------12-10-8-12-10-8-------------
A|---------------------------------------------------|
E|---------------------------------------------------|

E|---------------------------------------------------|
B|---------------------------------------------------|
G|12-10-------------------15-13-12-15-13-12----------
D|------13-12-10-13-12-10-------------------15-13-12-|
A|---------------------------------------------------|
E|---------------------------------------------------|

E|---------------------------------------------------|
B|---------------------------------------------------|
G|---------------------------------------------------|
D|15-13-12-------------------------------------------
A|---------15-13-11-15-13-11-------------------13-11-|
E|---------------------------15-13-11-15-13-11-------|

E|---------------------------------------------------|
B|---------------------------------------------------|
G|---------------------------------------------------|
D|---------------------------------------------------|
A|10-13-11-10-------------------11-10-8-11-10-8------
E|------------13-11-10-13-11-10-----------------11-10|

E|---------------------------------------------------|
B|---------------------------------------------------|
G|---------------------------------------------------|
D|---------------------------------------------------|
A|---------------------------------------------------|
E|8-11-10-8-6~---------------------------------------

PentaBlues em Fusa:

E|-------------8------13-8------13-8-----------------|
B|13p8----8h13---13p8------13-8------13-8------------
G|-----11--------------------------------------------|
D|---------------------------------------------------|
A|---------------------------------------------------|
E|---------------------------------------------------|

E|-------------8------13-8------13-8-----------------|
B|13p8----8h13---13p8------13-8------13-8------------
G|-----11--------------------------------------------|
D|---------------------------------------------------|
A|---------------------------------------------------|
E|---------------------------------------------------|

E|-------------8------13-8------13-8-----------------|
B|13p8----8h13---13p8------13-8------13-8------------
G|-----11--------------------------------------------|
D|---------------------------------------------------|
A|---------------------------------------------------|
E|---------------------------------------------------|

E|-------------8------13-8------13-8------11b13~-----|
B|13p8----8h13---13p8------13-8------13-8------------
G|-----11--------------------------------------------|
D|---------------------------------------------------|
A|---------------------------------------------------|
E|---------------------------------------------------|
00:00 / 00:00
Outros vídeos desta música
Repetir
Outros vídeos desta música
Compositor não encontrado.
Colaboração e revisão:
  • Vinícius Dias
53.839 exibições
    • ½ Tom
    • A
    • Bb
    • B
    • C
    • Db
    • D
    • Eb
    • E
    • F
    • F#
    • G
    • Ab
  • Adicionar à lista

    0 comentários

    Ver todos os comentários

    Conseguiu tocar?

    5 Tocaram 1 Ainda não

    Grave um vídeo tocando Exercícios de Sincronismo e nos envie!

    Entre para oCifra Club PRO

    Tenha acesso a benefícios exclusivos no App e no Site

    • Chega de anúncios

    • Prioridade de compra em lançamentos

    • Mais recursos no app do Afinador

    • Atendimento Prioritário

    • Descontos nos produtos Cifra Club

    • Ajude a produzir mais conteúdo

    00:00 / 00:00
    Capítulos
    • Início
    • Equipamentos
    • Cromatismo em Semicolcheia
    • Pentatônica em Sextina
    • Escala Menor em Sextina
    • PentaBlues em Fusa
    • Encerramento

    Cifra Club Pro

    Aproveite o Cifra Club com benefícios exclusivos e sem anúncios
    Cifra Club Pro
    Aproveite o Cifra Club com benefícios exclusivos e sem anúncios
    OK