Cifra Club

Caminho de São Tomé

Sá, Rodrix & Guarabyra

Cifra: Principal (violão e guitarra)
Selo Cifra Club: esta cifra foi revisada para atender aos critérios oficiais da nossa Equipe de Qualidade.
tom: Em
[Intro] G

E|--------------------------------------|
B|--------------------------------------|
G|--------------------------------------|
D|-----5-7-5----------------------------| (2x)
A|---7-------7-5-7----------------------|
E|--------------------------------------|

E|--------------------------------------|
B|--------------------------------------|
G|--------------------------------------|
D|------5-7-5-------5-7-5-------5-7-5---|
A|----7-------7-5-7-------7-5-7---------|
E|--------------------------------------|

Em
Só a dúvida ensina
C                 B7
E eu preciso aprender
Em
Onde o medo termina
C                   B7
Pra que eu possa viver
C                   G
O erro não determina
Em                 B7 
Quanto eu posso valer
C                   G
Cada erro é uma aula
Em                 B7
Cada aula é um prazer
C                   G
Só duvidando de tudo
G                  B7
É que eu posso crescer

                    C         D
Por isso eu quero andar no caminho
G            D/F#  Em  
De são tomé
Em             C
Botando o dedo na ferida
D                 G      D/F#  Em 
Pra ver como a ferida é
              C        D
Eu prefiro andar no caminho
G            D/F#  Em 
De são tomé
Em           C
O erro é a minha escola
D                  B7
A dúvida é minha fé

É minha fé

E|------------------------------------------|
B|------------------------------------------|
G|------------------------------------------|
D|-----5-7-5--------------------------------| (2x)
A|---7-------7-5-7--------------------------|
E|------------------------------------------|

E|------------------------------------------|
B|------------------------------------------|
G|------------------------------------------|
D|------5-7-5-------5-7-5-------5-7-5-------|
A|----7-------7-5-7-------7-5-7-------7-5-7-|
E|------------------------------------------|

Em
Esse canto de estrelas
C                 B7
Não me serve de chão
Em
Não me serve de concha
C             B7
Nem de opinião
C               G
Trabalhando na pedra
C           B7
Entendi a razão
Em                 C
Deus não entra em igreja
G            B7
Nem em religião
C                 G
E só se sente a vontade
C                B7
Dentro do coração

                    C         D
Por isso eu quero andar no caminho
G            D/F#  Em 
De são tomé
Em             C
Botando o dedo na ferida
D                 G      D/F#  Em 
Pra ver como a ferida é
              C        D
Eu prefiro andar no caminho
G            D/F#  Em 
De são tomé
Em           C
O erro é a minha escola
D                  B7
A dúvida é minha fé

É minha fé
Outros vídeos desta música
    193 exibições
      • ½ Tom
      • Am
      • Bbm
      • Bm
      • Cm
      • C#m
      • Dm
      • Ebm
      • Em
      • Fm
      • F#m
      • Gm
      • G#m
    • Adicionar à lista

    Afinação da cifra

    Afinador online

      0 comentários

      Ver todos os comentários

      Entre para o Cifra Club PRO

      Tenha acesso a benefícios exclusivos no App e no Site

      • Chega de anúncios

      • Badges exclusivas

      • Mais recursos no app do Afinador

      • Atendimento Prioritário

      • Aumente seu limite de lista

      • Ajude a produzir mais conteúdo

      Cifra Club Pro

      Aproveite o Cifra Club com benefícios exclusivos e sem anúncios
      Cifra Club Pro
      Aproveite o Cifra Club com benefícios exclusivos e sem anúncios
      Ops (: Contenido disponible sólo en portugués.
      OK