Cifra Club

Anywhere But Here

Safetysuit

Cifra: Principal (violão e guitarra)
Selo Cifra Club: esta cifra foi revisada para atender aos critérios oficiais da nossa Equipe de Qualidade.
tom: A
(intro) E - C#m - A - E

E |--------------------------|-----------------------------------|
B |--12---9--12---9----9-----|--12---9--12---9----10-9-----------|
G |----911-----911--11---11--|----911-----911--11----------------|
D |--------------------------|-----------------------------------|
A |--------------------------|-----------------------------------|
E |--------------------------|-----------------------------------|

E |--------------------------|-------------------12--------------|
B |--12---9--12---9----9-----|--12---9--12---9------10-9-10-12~--|
G |----911-----911--11---11--|----911-----911--11----------------|
D |--------------------------|-----------------------------------|
A |--------------------------|-----------------------------------|
E |--------------------------|-----------------------------------|

E                      C#m
Is this the end of the moment
                      A
Or just a beautiful unfolding
                          A
Of a love that will never be

Or maybe be

E                                     C#m
Everything that I never thought could happen
                A
Or ever come to pass and I wonder
      A               C#m
If maybe, maybe I could be
        A
All you ever dreamed, cause you are

REFRÃO:
E
Beautiful inside,
C#m                  G#m
So lovely and I
                      A
Can't see why I'd do
                            E
Anything without you, you are
                      C#m
And when I'm not with you,
                      G#m
I know that it's true
                   A
That I'd rather be anywhere
                     E        C#m
But here without you
                  G#m       A
(Anywhere but here...)

E |-----------------------------|-----------------------------|
B |--12-------12-----9----9-----|--12-------12-----9----10-9--|
G |------9-11-----11---11---11--|------9-11-----11---11-------|
D |-----------------------------|-----------------------------|
A |-----------------------------|-----------------------------|
E |-----------------------------|-----------------------------|

E |-----------------------------------|
B |--12-------12-----9----9h10-9------|
G |------9-11-----11---11--------9~\--|
D |-----------------------------------|
A |-----------------------------------|
E |-----------------------------------|

Verse2:
E                 C#m
Is this a natural feeling
                 A
Or is it just me bleeding

All my thoughts and dreams
   E                  E/Eb          E
In hope that you will be with me or
                      C#m
Is this a moment to remember
                        A
Or just a cold day in December, I wonder
   E      E/Eb          C#m
If maybe, maybe I could be
             A
All you ever dreamed cause you are

Chorus:
E
Beautiful inside,
C#m                   G#m
So lovely and I
                      A
Can't see why I'd do
                          E
Anything without you, you are
                      C#m
And when I'm not with you,
                     G#m
I know that it's true
                   A
That I'd rather be anywhere
                     E
But here without you

Solo: E - C#m - B     G#m - A        x2

E |----------------------------------------------------------|
B |--12-------12-----9----9-------12-------12-----9----10-9--|
G |------9-11-----11---11---11--------9-11-----11---11-------|
D |----------------------------------------------------------|
A |----------------------------------------------------------|
E |----------------------------------------------------------|

E |--------------------------------------------------------------|
B |--12-------12-----9----9h10-9----------12---------7-----------|
G |------9-11-----11---11--------9\--9-11----9---8-9---9-9-8-9---|
D |--------------------------------------------------------------|
A |--------------------------------------------------------------|
E |--------------------------------------------------------------|

E |---------------------------------------------------12----------|
B |--12-------12-----9----9-------12-------12-----9------10-9-10--|
G |------9-11-----11---11---11--------9-11-----11---11------------|
D |---------------------------------------------------------------|
A |---------------------------------------------------------------|
E |---------------------------------------------------------------|

E |-----------------------------------|
B |--12-------12-----9----9h10-9------|
G |------9-11-----11---11--------9~\--|
D |-----------------------------------|
A |-----------------------------------|
E |-----------------------------------|

Bridge:
E
Is this the end of the moment
E
Or just a beautiful unfolding
E
Of a love that will never be for you and me

Solo2: E - C#m - B     G#m - A

E |--------------------------------------------------------------|
B |--12----------------------------------------------------------|
G |-----9-9-9-9-9-8s9-9s11-9-8s9-9s11-9--9s13s11-11-11s14s13-13--|
D |--------------------------------------------------------------|
A |--------------------------------------------------------------|
E |--------------------------------------------------------------|

E |----------------------------------------------------|
B |--/12---------/12---------/10--9-10-9---------------|
G |-------11-9--------11-9---------------11~--11s9-9~--|
D |----------------------------------------------------|
A |----------------------------------------------------|
E |----------------------------------------------------|

Chorus/Outro:

Cause you are
E                 C#m
You're beautiful inside,
                          G#m
you're so lovely and I
                  A                        E
Can't see why I'd do anything without you, you are

E |--16-------16-----------------|
B |--------19-------17----19-----|  x2
G |-----16-------16----16----16--|
D |------------------------------|
A |------------------------------|
E |------------------------------|

                      C#m
And when I'm not with you,
                      G#m
I know that it's true
                   A                         E     C#m         G#m     A
That I'd rather be anywhere but here without you

E     C#m - B     G#m - A

E |--16-------16-------------17-------------|
B |--------19-------17----19----------------|
G |-----16-------16----16-------------------|
D |-----------------------------------------|
A |-----------------------------------------|
E |-----------------------------------------|

E |--16-------16----------------------------|
B |--------19-------17----19-----------17~--|
G |-----16-------16----16----16s1414s16-----|
D |-----------------------------------------|
A |-----------------------------------------|
E |-----------------------------------------|

termina com A
Outros vídeos desta música
    4.236 exibições
      • ½ Tom
      • A
      • Bb
      • B
      • C
      • Db
      • D
      • Eb
      • E
      • F
      • F#
      • G
      • Ab
    • Adicionar à lista

    Afinação da cifra

    Afinador online

      0 comentários

      Ver todos os comentários

      Entre para o Cifra Club PRO

      Tenha acesso a benefícios exclusivos no App e no Site

      • Chega de anúncios

      • Badges exclusivas

      • Mais recursos no app do Afinador

      • Atendimento Prioritário

      • Aumente seu limite de lista

      • Ajude a produzir mais conteúdo

      Cifra Club Pro

      Aproveite o Cifra Club com benefícios exclusivos e sem anúncios
      Cifra Club Pro
      Aproveite o Cifra Club com benefícios exclusivos e sem anúncios
      Ops (: Contenido disponible sólo en portugués.
      OK