Cifra Club

Mr Sir

Safetysuit

Cifra: Principal (violão e guitarra)
Selo Cifra Club: esta cifra foi revisada para atender aos critérios oficiais da nossa Equipe de Qualidade.
tom: A
E|----12-16-16/17-16-12--------|--------------|-------------|----------------|
B|-12-------------------12-----|--------17----|-------------|----------------|
G|-------------------------14~-|--14-16----13-|-14--14/16| c--|----------------|
D|-----------------------------|--------------|-------------|----------------|
A|-----------------------------|--------------|-------------|----------------|
E|-----------------------------|--------------|-------------|----------------|

E|-----------|------------------------------|--------------|-----------------|
B|-----------|------------------------------|--------------|-----------------|
G|-13-14-16~-|--16/18----19/18-16-18/21-13~-|-13h14h16-11~-|-13p11-----------|
D|-----------|------------------------------|--------------|-------14~-------|
A|-----------|------------------------------|--------------|-----------------|
E|-----------|------------------------------|--------------|-----------------|

E|-------------------------------|-------------------------------------------|
B|-------------------------------|---------17-21b/==r\-17--------------------|
G|/14--14/16--16--/18--18--16~---|---16-18----------------16| c----------------|
D|-------------------------------|-------------------------------------------|
A|-------------------------------|-------------------------------------------|
E|-------------------------------|-------------------------------------------|

E|---------------------|-----------------------------------------------------|
B|---------------------|-----------------------------------------------------|
G|-13b/==r\-9----------|-----/14~~~13~~13h14p13------------------------------|
D|------------9~~~\----|------------------------14-14/16~~~------------------|
A|---------------------|-----------------------------------------------------|
E|---------------------|-----------------------------------------------------|

********

/         Slide up
\         Slide down
h         hammer-on
p         pull-off
b/==r\    bend & release
~         vibrato
c         cut-node
Outros vídeos desta música
    3 exibições
      • ½ Tom
      • A
      • Bb
      • B
      • C
      • Db
      • D
      • Eb
      • E
      • F
      • F#
      • G
      • Ab
    • Adicionar à lista

    Afinação da cifra

    Afinador online

      0 comentários

      Ver todos os comentários

      Entre para o Cifra Club PRO

      Tenha acesso a benefícios exclusivos no App e no Site

      • Chega de anúncios

      • Badges exclusivas

      • Mais recursos no app do Afinador

      • Atendimento Prioritário

      • Aumente seu limite de lista

      • Ajude a produzir mais conteúdo

      Cifra Club Pro

      Aproveite o Cifra Club com benefícios exclusivos e sem anúncios
      Cifra Club Pro
      Aproveite o Cifra Club com benefícios exclusivos e sem anúncios
      Ops (: Contenido disponible sólo en portugués.
      OK