Cifra Club

Raiz de Todo o Bem

Saulo Fernandes

Cifra: Principal
exibições 121.023
Tom: F
Dm7
Salvador, Bahia, território africano
          Gm
Baiano sou eu, é você, somos nós
        A
Uma voz, um tambor
Gm
Oxente, cê num tá vendo que a gente é nordeste?
Cabra da peste
Sai daí batucador
          Dm
Quem foi seu mestre?
    A
Capoeira
  Gm
Se plante
Lá vem rasteira
Pé de ladeira
                              Bb
Preciso da fé no Senhor do Bonfim
                       A   A7
Pra mim, pra você, pra mim
  Gm
Um chinelo de couro, uma bata
                       A                A7
Uma benção, mais cinquenta centavos de som
Aumenta o som!
 Dm
África, iô iô
       C
Salvador, meu amor
                  Bb
A raiz de todo bem, de tanta fé
               A
Do canto Candomblé
 Dm7
África, iô iô
       C
Salvador, meu amor
                  Bb
A raiz de todo bem, de tanta fé
               A
Do canto Candomblé

(Repete verso)

 Dm
África, iô iô
       C
Salvador, meu amor
                  Bb
A raiz de todo bem, de tanta fé
               A  A7
Do canto Candomblé
 F
África, iô iô
       C
Salvador, meu amor
                  Bb
A raiz de todo bem, de tanta fé
               A
Do canto Candomblé

Riff
E|---------------5----------------------|
B|---------5-6-8--6---------------------|
G|-------7---------7--------------------|
D|--------------------------------------|
A|--------------------------------------|
E|--------------------------------------|

E|--------------------------------------|
B|--------------------------------------|
G|-------5---5-7-5----------------------|
D|---------7----------------------------|
A|--------------------------------------|
E|--------------------------------------|

E|--------------------------------------|
B|-----65------1110----------10---------|
G|--3/5----8/10-----12-13-14----7-8-9---|
D|--------------------------------------|
A|--------------------------------------|
E|--------------------------------------|

0 comentários

    mostrar mais comentários

    Conseguiu tocar?

    18tocaram1ainda não

    Grave um vídeo tocando Raiz de Todo o Bem e mande pra gente!

    00:00 / 00:00
    outros vídeos desta música
    repetirqualidadeautomática
    Outro vídeos desta música
      00:00 / 00:00
      automática
      OK