Cifra Club

Song From A Secret Garden

Savage Garden

Cifra: Principal (violão e guitarra)
Selo Cifra Club: esta cifra foi revisada para atender aos critérios oficiais da nossa Equipe de Qualidade.
tom: A
[Intro]

E|------------------1----------------------------------------------1----------------------|
B|---1-3-4--3-4---4---3-1-3---3-4-1---1------------1-3-4--3--4---4---3-1-3--3-4-1---1----1|
G|--0----0----1---1-------0---0-----3---3-0------0-----0-----0---0-1----------0---3----3--|
D|------------------------------------3---0--------3------3----------3-1-3--3---1-0-1--0--|
A|---------------------------------------------------------------------------------------3|
E|----------------------------------------------------------------------------------------|

[Primeira Parte]

E|-------------------1----------------------------|
B|-----1-3-4--3-4--4---3-1-3-1-3--3-4-1---1-------|
G|---0----------------------------------3---3-0---|
D|------------------------------------------------|
A|------------------------------------------------|
E|------------------------------------------------|

[Segunda Parte]

E|-------------------1----------------------|
B|-----1-3-4--3-4--4---3-1-3---3-4-1---1---1|
G|---0-------------------------------3---3--|
D|------------------------------------------|
A|------------------------------------------|
E|------------------------------------------|

[Terceira Parte]

E|-----6-8--8-8-10-6-4-646-----3-4--4-4-6-3-1-3---6-8--8-8-10-6-5-6-6-6-8-4-3-4-4-4-6-3-1-3|
B|-3-4---------------------3-4------------------3-4----------------------------------------|
G|-----------------------------------------------------------------------------------------|
D|-----------------------------------------------------------------------------------------|
A|-----------------------------------------------------------------------------------------|
E|-----------------------------------------------------------------------------------------|

[Primeira Parte]

E|-------------------1----------------------------|
B|-----1-3-4--3-4--4---3-1-3-1-3--3-4-1---1-------|
G|---0----------------------------------3---3-0---|
D|------------------------------------------------|
A|------------------------------------------------|
E|------------------------------------------------|

[Quarta Parte]

E|---------------------------------------------|
B|---------------------------------------------|
G|---------------------------------------------|
D|-----0-1-0-1--1-3-0---0---0--0-1-------------|
A|---3----------------3---3--------3-1-3-1-3---|
E|--3------------------------------------------|

[Terceira Parte]

E|-----6-8--8-8-10-6-4-646-----3-4--4-4-6-3-1-3---6-8--8-8-10-6-5-6-6-6-8-4-3-4-4-4-6-3-1-3|
B|-3-4---------------------3-4------------------3-4----------------------------------------|
G|-----------------------------------------------------------------------------------------|
D|-----------------------------------------------------------------------------------------|
A|-----------------------------------------------------------------------------------------|
E|-----------------------------------------------------------------------------------------|

[Primeira Parte]

E|-------------------1----------------------------|
B|-----1-3-4--3-4--4---3-1-3-1-3--3-4-1---1-------|
G|---0----------------------------------3---3-0---|
D|------------------------------------------------|
A|------------------------------------------------|
E|------------------------------------------------|

[Quarta Parte]

E|---------------------------------------------|
B|---------------------------------------------|
G|---------------------------------------------|
D|-----0-1-0-1--1-3-0---0---0--0-1-------------|
A|---3----------------3---3--------3-1-3-1-3---|
E|--3------------------------------------------|

[Final]

E|-------------------|
B|--3-4-1---1---1----|
G|--------3---3------|
D|-------------------|
A|-------------------|
E|-------------------|
Outros vídeos desta música
    15 exibições
      • ½ Tom
      • A
      • Bb
      • B
      • C
      • Db
      • D
      • Eb
      • E
      • F
      • F#
      • G
      • Ab
    • Adicionar à lista

    Afinação da cifra

    Afinador online

      0 comentários

      Ver todos os comentários

      Entre para o Cifra Club PRO

      Tenha acesso a benefícios exclusivos no App e no Site

      • Chega de anúncios

      • Badges exclusivas

      • Mais recursos no app do Afinador

      • Atendimento Prioritário

      • Aumente seu limite de lista

      • Ajude a produzir mais conteúdo

      Cifra Club Pro

      Aproveite o Cifra Club com benefícios exclusivos e sem anúncios
      Cifra Club Pro
      Aproveite o Cifra Club com benefícios exclusivos e sem anúncios
      OK