Cifra Club

If I Go Away

Savatage

Cifra: Principal (violão e guitarra)
Selo Cifra Club: esta cifra foi revisada para atender aos critérios oficiais da nossa Equipe de Qualidade.
tom: Am
E|----------------------------------------------------------------------------|
B|----------------------------------------------------------------------------|
G|------------2-------2-------------------------2-------2---------------------|
D|--------2---------------2-----------------2----------------2----------------|
A|----0-----------0-----------5---0-----0-----------0------------5---0--------|
E|----------------------------------------------------------------------------|


E|----------------------------------------------------------------------------|
B|----------------------------------------------------------------------------|
G|-----2----------------------------------------------2---2-------------------|
D|---------2------------------------------------------2---2-------------------|
A|-------------0----5---5---5----3---2---2---3---0----0---0----2---3---0------|
E|----------------------------------------------------------------------------|

    1. Some where on that long empty road                We all stand alone
    2. In the dark I call out you name                   It echos in vain
E|----------------------------------------------------------------------------|
B|----------------------------------------------------------------------------|
G|0-----------2-------2-------------------------2-------2---------------------|
D|0-------2---------------2-----------------2----------------2----------------|
A|----0-----------0-----------5---0-----0-----------0------------5---0--------|
E|----------------------------------------------------------------------------|

    1. Looking for clues          From our different views
    2. Over again                 In an empty room
E|----------------------------------------------------------------------------|
B|----------------------------------------------------------------------------|
G|-----2----------------------------------------------2---2------------------o|
D|---------2------------------------------------------2---2------------------o|
A|-------------0----5---5---5----3---2---2---3---0----0---0----2---3---0------|
E|----------------------------------------------------------------------------|

                                  If I go Away        What will still remain
E|----------------------------------------------------------------------------|
B|---8---8-----6---6-----5----5---5----3----1----1---1------------------------|
G|---7---7-----5---5-----5----5---5----1----2----2---2-----3----2-----2-------|
D|---5---5-----3---3-----5----5---5----3----2----2---2-----5----3-----3-------|
A|-----------------------3----3---3----2----0----0---0-----5----3-----3-------|
E|---------------------------------------------------------3----1-----1-------|

                                                     Of me
E|----------------------------------------------------------------------------|
B|-----------3----------3-------3-------------------5-------------------------|
G|-----------1----------1-------1-------------------5-------------------------|
D|-----------3----------3-------3-------------------5-------------------------|
A|-------X---2---X--X---2---X---2-------------------3-------------------------|
E|-------0-------0--0-------0-------------------------------------------------|

                                  The ghost....eyes   Whispers in your sighs
E|----------------------------------------------------------------------------|
B|---8---8-----6---6-----5----5---5----3----1----1---1------------------------|
G|---7---7-----5---5-----5----5---5----1----2----2---2-----3----2-----2-------|
D|---5---5-----3---3-----5----5---5----3----2----2---2-----5----3-----3-------|
A|-----------------------3----3---3----2----0----0---0-----5----3-----3-------|
E|---------------------------------------------------------3----1-----1-------|

            You see                         Believe
E|----------------------------------------------------------------------------|
B|----------------------------------------------------------------------------|
G|----------------------------------------------------------------------------|
D|---------5-------5-------5-------5------------------------------------------|
A|---------3---3---3---3---3---3---3---3---5-------5-------5-------5----------|
E|-----------------------------------------3---3---3---3---3---3---3----------|

               And  I'm     Always    there
E|----------------------------------------------------------------------------|
B|----------------------------------------------------------------------------|
G|------------5----4-------4----5----2~~~~| ----4----5-----2~~~ ---------------|
D|----------------------------------------------------------------------------|
A|----------------------------------------------------------------------------|
E|----------------------------------------------------------------------------|

    1. Staring down a long empty hall                   Pictures on walls
    2. Searching for the chord I can't hear             Been searching for years
E|----------------------------------------------------------------------------|
B|----------------------------------------------------------------------------|
G|0-----------2-------2-------------------------2-------2---------------------|
D|0-------2---------------2-----------------2----------------2----------------|
A|----0-----------0-----------5---0-----0-----------0------------5---0--------|
E|----------------------------------------------------------------------------|
                                                                             
E|----------------------------------------------------------------------------|
B|--------------------1---------------------------------1---------------------|
G|0-----------2-------2-------------------------2-------2---------------------|
D|0-------2-----------2---------------------2-----------2---------------------|
A|----0-----------0---0-----------------0-----------0---0---------------------|
E|----------------------------------------------------------------------------|

   1.  All with your name         But its not the same
   2.  Its somewhere inside       But its well desguiesed
E|----------------------------------------------------------------------------|
B|----------------------------------------------------------------------------|
G|-----2----------------------------------------------2---2------------------o|
D|---------2------------------------------------------2---2------------------o|
A|-------------0----5---5---5----3---2---2---3---0----0---0----2---3---0------|
E|----------------------------------------------------------------------------|
                                                                             
E|----------------------------------------------------------------------------|
B|----------------------------------------------------------------------------|
G|--------------3----3----3--3--3-----2---2---2-----------------2------2-----o|
D|--------------5----5----5--5--5-----3---3---3-----------------3------3-----o|
A|--------------5----5----5--5--5-----3---3---3------X-X-X-X----3------3------|
E|--------------3----3----3--3--3-----1---1---1------0-0-0-0----1------1------|

                                   If I go Away       What will still remain 
E|----------------------------------------------------------------------------|
B|---8---8-----6---6-----5----5---5----3----1----1---1------------------------|
G|---7---7-----5---5-----5----5---5----1----2----2---2-----3----2-----2-------|
D|---5---5-----3---3-----5----5---5----3----2----2---2-----5----3-----3-------|
A|-----------------------3----3---3----2----0----0---0-----5----3-----3-------|
E|---------------------------------------------------------3----1-----1-------|

                                                    of Me
E|----------------------------------------------------------------------------|
B|-----------3----------3-------3-------------------5-------------------------|
G|-----------1----------1-------1-------------------5-------------------------|
D|-----------3----------3-------3-------------------5-------------------------|
A|-------X---2---X--X---2---X---2-------------------3-------------------------|
E|-------0-------0--0-------0-------------------------------------------------|

                                   The ghost...eyes   Whispers in your sighs
E|----------------------------------------------------------------------------|
B|---8---8-----6---6-----5----5---5----3----1----1---1------------------------|
G|---7---7-----5---5-----5----5---5----1----2----2---2-----3----2-----2-------|
D|---5---5-----3---3-----5----5---5----3----2----2---2-----5----3-----3-------|
A|-----------------------3----3---3----2----0----0---0-----5----3-----3-------|
E|---------------------------------------------------------3----1-----1-------|

            You see                          Believe
E|----------------------------------------------------------------------------|
B|----------------------------------------------------------------------------|
G|----------------------------------------------------------------------------|
D|---------5-------5-------5-------5------------------------------------------|
A|---------3---3---3---3---3---3---3---3---5-------5-------5-------5----------|
E|-----------------------------------------3---3---3---3---3---3---3----------|

                And I'm     Always   there
E|----------------------------------------------------------------------------|
B|----------------------------------------------------------------------------|
G|------------5----4-------4----5----2~~~~| ----4----5-----2~~~ ---------------|
D|----------------------------------------------------------------------------|
A|----------------------------------------------------------------------------|
E|----------------------------------------------------------------------------|
                                                                              
E|----------------------------------------------------------------------------|
B|----------------------------------------------------------------------------|
G|----------------------------------------------------------------------------|
D|-----------------------------------------------------------------------7-7--|
A|-------------------------------------------7-7-7-7-7-7-7-7-7-7-7-7--7--5-5--|
E|-------------------------------------------5-5-5-5-5-5-5-5-5-5-5-5--5-------|

                   Some day I'll take a chance     Find it where you can
E|----------------------------------------------------------------------------|
B|----------------------------------------------------------------------------|
G|---------------------14--14-----14--11--------------------------------------|
D|----7--7----7--7-----14--14-----14--11------7--7------9--9----2-------------|
A|----7--7----7--7-----11--11-----11--9-------7--7------9--9----2-------------|
E|----5--5----4--4----------------------------5--5------7--7----0-------------|

                   They tend to slip away          The doors to yesterday
E|----------------------------------------------------------------------------|
B|----------------------------------------------------------------------------|
G|---------------------14--14-----14--11--------------------------------------|
D|----7--7----5--5-----14--14-----14--11------7--7------9--9----2-------------|
A|----7--7----5--5-----11--11-----11--9-------7--7------9--9----2-------------|
E|----5--5----4--3----------------------------5--5------7--7----0-------------|


E|----------------------17--19--17----------------------17--19--22'| ----------|
B|----17~~~| ----17--16--------------20--17~~~ --17--16------------------------|
G|----------------------------------------------------------------------------|
D|----------------------------------------------------------------------------|
A|----------------------------------------------------------------------------|
E|----------------------------------------------------------------------------|

         h  h  t  p  p  p  h  h  t  p  p  p  h  h  t  p  p  p  h  h  t
E|----15^17^19^24^19^17^15^17^19^24^19^17^15^17^19^24^19^17^15^17^19^24~~~----|
B|----------------------------------------------------------------------------|
G|----------------------------------------------------------------------------|
D|----------------------------------------------------------------------------|
A|----------------------------------------------------------------------------|
E|----------------------------------------------------------------------------|

    1. Forever is a long time they say                   Maybe some day
    2. Tell me then where can I go                       Where they wont know
E|----------------------------------------------------------------------------|
B|----------------------------------------------------------------------------|
G|o-----------2-------2-------------------------2-------2---------------------|
D|o-------2---------------2-----------------2----------------2----------------|
A|----0-----------0-----------5---0-----0-----------0------------5---0--------|
E|----------------------------------------------------------------------------|
                                                                             
E|----------------------------------------------------------------------------|
B|--------------------1---------------------------------1---------------------|
G|o-----------2-------2-------------------------2-------2---------------------|
D|o-------2-----------2---------------------2-----------2---------------------|
A|----0-----------0---0-----------------0-----------0---0---------------------|
E|----------------------------------------------------------------------------|

   1. I'll meet you there         If you time to spare
   2. Who I've been               Can we start again
E|----------------------------------------------------------------------------|
B|----------------------------------------------------------------------------|
G|-----2----------------------------------------------2---2------------------o|
D|---------2------------------------------------------2---2------------------o|
A|-------------0----5---5---5----3---2---2---3---0----0---0----2---3---0------|
E|----------------------------------------------------------------------------|
                                                                              
E|----------------------------------------------------------------------------|
B|----------------------------------------------------------------------------|
G|--------------3----3----3--3--3-----2---2---2-----------------2------2-----o|
D|--------------5----5----5--5--5-----3---3---3-----------------3------3-----o|
A|--------------5----5----5--5--5-----3---3---3------X-X-X-X----3------3------|
E|--------------3----3----3--3--3-----1---1---1------0-0-0-0----1------1------|

                                  If I GO Away        What will still remain
E|----------------------------------------------------------------------------|
B|---8---8-----6---6-----5----5---5----3----1----1---1------------------------|
G|---7---7-----5---5-----5----5---5----1----2----2---2-----3----2-----2-------|
D|---5---5-----3---3-----5----5---5----3----2----2---2-----5----3-----3-------|
A|-----------------------3----3---3----2----0----0---0-----5----3-----3-------|
E|---------------------------------------------------------3----1-----1-------|

                                                   Of Me
E|----------------------------------------------------------------------------|
B|-----------3----------3-------3-------------------5-------------------------|
G|-----------1----------1-------1-------------------5-------------------------|
D|-----------3----------3-------3-------------------5-------------------------|
A|-------X---2---X--X---2---X---2-------------------3-------------------------|
E|-------0-------0--0-------0-------------------------------------------------|

                                 The ghost....eyes    Whispers in your sighs
E|----------------------------------------------------------------------------|
B|---8---8-----6---6-----5----5---5----3----1----1---1------------------------|
G|---7---7-----5---5-----5----5---5----1----2----2---2-----3----2-----2-------|
D|---5---5-----3---3-----5----5---5----3----2----2---2-----5----3-----3-------|
A|-----------------------3----3---3----2----0----0---0-----5----3-----3-------|
E|---------------------------------------------------------3----1-----1-------|

            You see                         Beleive
E|----------------------------------------------------------------------------|
B|----------------------------------------------------------------------------|
G|----------------------------------------------------------------------------|
D|---------5-------5-------5-------5------------------------------------------|
A|---------3---3---3---3---3---3---3---3---5-------5-------5-------5----------|
E|-----------------------------------------3---3---3---3---3---3---3----------|

               And  I'm     Always   There
E|----------------------------------------------------------------------------|
B|----------------------------------------------------------------------------|
G|------------5----4-------4----5----2~~~~------------------------------------|
D|----------------------------------------------------------------------------|
A|----------------------------------------------------------------------------|
E|----------------------------------------------------------------------------|
Outros vídeos desta música
    46 exibições
      • ½ Tom
      • Am
      • Bbm
      • Bm
      • Cm
      • C#m
      • Dm
      • Ebm
      • Em
      • Fm
      • F#m
      • Gm
      • G#m
    • Adicionar à lista

    Afinação da cifra

    Afinador online

      0 comentários

      Ver todos os comentários

      Entre para o Cifra Club PRO

      Tenha acesso a benefícios exclusivos no App e no Site

      • Chega de anúncios

      • Badges exclusivas

      • Mais recursos no app do Afinador

      • Atendimento Prioritário

      • Aumente seu limite de lista

      • Ajude a produzir mais conteúdo

      Cifra Club Pro

      Aproveite o Cifra Club com benefícios exclusivos e sem anúncios
      Cifra Club Pro
      Aproveite o Cifra Club com benefícios exclusivos e sem anúncios
      Ops (: Contenido disponible sólo en portugués.
      OK