Cifra Club

You Vandal

Saves The Day

Cifra (violão e guitarra)
Selo Cifra Club: esta cifra foi revisada para atender aos critérios oficiais da nossa Equipe de Qualidade.
tom: C#m
Intro
E|--------------------------------------------------------------------------|
B|--------------------------------------------------------------------------|
G|--------------------------------------------------------------------------|
D|--------------------------------------4-44-4-4-44-------------------------|
A|-6-66-6-6-66-6/7\6-2-22-2-2-22--6/7\6-2-22-2-2-22-6/7\6-4-44-4-4-44-6/7\6-|
E|-4-44-4-4-44-------0-00-0-0-00--------------------------2-22-2-2-22-------|

Verse 1
Play 2 times, pause, then play 2 more times
E|-----------------------------------------------------------------|
B|-----------------------------------------------------------------|
G|-------------------------------------------------9---11--13---11-|
D|-----------------9-9-9-9-9-9-9-9---------------------------------|
A|-6-6-6-6-6-6-6-6-7-7-7-7-7-7-7-7-9-9-9-9-9-9-9-9-7---9---11---9--|
E|-4-4-4-4-4-4-4-4-----------------7-7-7-7-7-7-7-7-----------------|

Chorus
Play 4 times
E|----------------------------------|
B|----------------------------------|
G|----------------------------------|
D|-44-------------------------------|
A|-22--6/7-22--6/7-66--6/7-44-6/7\6-|
E|---------00------44------22-------|

Bridge
E|---------------------------------|
B|---------------------------------|
G|---------------------------------|
D|---------------------------------|
A|-6-6-6-6---6-6-6-6---6-6-6-6---6-|
E|-4-4-4-4---4-4-4-4---4-4-4-4---4-|

Verse 2
E|--------------------------------------------------------------------------|
B|--------------------------------------------------------------------------|
G|--------------------------------------------------------------------------|
D|--------------------------------------4-44-4-4-44-------------------------|
A|-6-66-6-6-66-6/7\6-2-22-2-2-22--6/7\6-2-22-2-2-22-6/7\6-4-44-4-4-44-6/7\6-|
E|-4-44-4-4-44-------0-00-0-0-00--------------------------2-22-2-2-22-------|

E|-----------------------------------------------------------|
B|-----------------------------------------------------------|
G|-----------------------------------------------------------|
D|--------------------------------------4-44-4-4-44----------|
A|-6-66-6-6-66-6/7\6-2-22-2-2-22--6/7\6-2-22-2-2-22-6/7\6-4--|
E|-4-44-4-4-44-------0-00-0-0-00--------------------------2--|

Bridge
Play 2 times
E|-----------------------------------------------------------------|
B|-----------------------------------------------------------------|
G -4-4-4-4-4-4-4-4-6-6-6-6-6-6-6-6-8-8-8-8-8-8-8-8-9-9-9-9-9-9-9-9-|
D|-----------------------------------------------------------------|
A -2-2-2-2-2-2-2-2-4-4-4-4-4-4-4-4-6-6-6-6-6-6-6-6-7-7-7-7-7-7-7-7-|
E|-----------------------------------------------------------------|

Chorus
Play 4 times
E|----------------------------------|
B|----------------------------------|
G|----------------------------------|
D|-44-------------------------------|
A|-22--6/7-22--6/7-66--6/7-44-6/7\6-|
E|---------00------44------22-------|

Outro
E|----------------------------------|
B|----------------------------------|
G|----------------------------------|
D|-44-------------------------------|
A|-22--6/7-22--6/7-66--6/7-44-6/7\6-|
E|---------00------44------22-------|

E|-------------------------------------|
B|-------------------------------------|
G|-------------------------------------|
D|-44-------------------------------4--|
A|-22--6/7-22--6/7-66--6/7-44-6/7\6-2--|
E|---------00------44------22----------|
Outros vídeos desta música
    0 exibições
      • ½ Tom
      • Am
      • Bbm
      • Bm
      • Cm
      • C#m
      • Dm
      • Ebm
      • Em
      • Fm
      • F#m
      • Gm
      • G#m
    • Adicionar à lista

    Afinação da cifra

    Afinador online

      0 comentários

      Ver todos os comentários

      Entre para o Cifra Club PRO

      Tenha acesso a benefícios exclusivos no App e no Site

      • Chega de anúncios

      • Badges exclusivas

      • Mais recursos no app do Afinador

      • Atendimento Prioritário

      • Aumente seu limite de lista

      • Ajude a produzir mais conteúdo

      Cifra Club Pro

      Aproveite o Cifra Club com benefícios exclusivos e sem anúncios
      Cifra Club Pro
      Aproveite o Cifra Club com benefícios exclusivos e sem anúncios
      Ops (: Contenido disponible sólo en portugués.
      OK