Cifra Club

Brand New Love

Sebadoh

Cifra: Principal (violão e guitarra)
Selo Cifra Club: esta cifra foi revisada para atender aos critérios oficiais da nossa Equipe de Qualidade.
tom: A
E|---------------------|---------------------|---------------------|---------------------|
B|-5--------------5----|-----------5----3----|-----------3---------|------3----2---------|
G|------2----2---------|-2----2--------------|-2----2---------2----|-2--------------2----|
D|---------------------|---------------------|---------------------|---------------------|
A|---------------------|---------------------|---------------------|---------------------|
E|---------------------|---------------------|---------------------|---------------------|


E|---------------------|---------------------|---------------------|
B|------2--------------|-2----3----3----3----|-3-------------------|
G|-2---------2----2----|------2----2----2----|-2-------------------|
D|---------------------|------0----0----0----|-0-------------------|
A|---------------------|---------------------|---------------------|
E|---------------------|---------------------|---------------------|


[Verse]

A                 D        Asus2    D
restless eyes close maybe it will go away
A                 D        Asus2    D
please rest tomorrow bring a satisfied day
A                 D        Asus2    D
the restless urge a love that's worth the burning for
A                 D        Asus2    D  (hold)
surely it's that one consuming love to give you more

[Chorus]

A                 Esus4         D
any thought could be the beginning of the brand new tangled web you're spinning
A                 E             D
any one could be a brand new love
A                 Esus4         D
any tie that holds can be broken tear your bitter world to the open
A                 Esus4         D
any one could be a brand new love

[Verse]

A                 D              Asus2          D
you won't be the first your twisted change is normal gossip dirt
A                 D              Asus2          D
whispered to the nodding head thrilled you fell apart instead of them
A                 D              Asus2          D
but they will cos any hope for love can be killed
A                 D              Asus2          D 
if you need a different face it's definite time to destroy this place

[Chorus]
A                 Esus4         D
any thought could be the beginning of the brand new tangled web you're spinning
A                 E             D
any one could be a brand new love
A                 Esus4         D
any tie that holds can be broken tear your bitter world to the open
A                 Esus4         D
any one could be a brand new love
Outros vídeos desta música
    13 exibições
      • ½ Tom
      • A
      • Bb
      • B
      • C
      • Db
      • D
      • Eb
      • E
      • F
      • F#
      • G
      • Ab
    • Adicionar à lista

    Afinação da cifra

    Afinador online

      0 comentários

      Ver todos os comentários

      Conseguiu tocar?

      0Tocaram0Ainda não

      Grave um vídeo tocando Brand New Love e nos envie!

      Toque também

      1. Imagem do artista PavementHarness Your Hopes Pavement
      2. Imagem do artista Guided By VoicesPlanet Score Guided By Voices
      3. Imagem do artista Folk ImplosionBella ciao Folk Implosion
      4. Imagem do artista SuperchunkLow F Superchunk

      Entre para o Cifra Club PRO

      Tenha acesso a benefícios exclusivos no App e no Site

      • Chega de anúncios

      • Badges exclusivas

      • Mais recursos no app do Afinador

      • Atendimento Prioritário

      • Aumente seu limite de lista

      • Ajude a produzir mais conteúdo

      Cifra Club Pro

      Aproveite o Cifra Club com benefícios exclusivos e sem anúncios
      Cifra Club Pro
      Aproveite o Cifra Club com benefícios exclusivos e sem anúncios
      Ops (: Contenido disponible sólo en portugués.
      OK