Cifra Club

Aprenda

Assim Assado

Secos & Molhados

Tab de baixo: Principal
G ||-------------7---------------7-5-7-5----||
D ||----------------------------------------||
A ||--3-5-5-5-------3-5-5-5-----------------||
E ||----------------------------------------|| (x5)

G ||----------------------------------------||
D ||----------------------------------------||
A ||--3-5-5-5-------3-5-5-5-----------------||
E ||----------------------------------------|| (x2)

G ||----------------------------------------||
D ||--------------4--7--9-------------------||
A ||--5--4--2--0-----------7-------5--5-7-5-||
E ||--------------------------3--3----------||

G ||----------------------------------------||
D ||----------------------------------------||
A ||--------5---3-3-3-3-3-4-5---------------||
E ||--3--3----------------------------------||

G ||----------------------------------------||
D ||----------------------------------------||
A ||--5--4--2--0-------5--5-7-5-------------||
E ||--------------3--3----------------------||

G ||----------------------------------------||
D ||----------------------------------------||
A ||--------5---3---------4-5---------------||
E ||--3--3----------------------------------||

G ||--10-8-10-8-10-8------------------------||
D ||-----------------10-8-------------------||
A ||----------------------10-8--------------||
E ||----------------------------------------|| (x6)

G ||----------------------------------------||
D ||----------------------------------------||
A ||----------------------------------------||
E ||--8---------9-10------------------------||

G ||----------------------------------------||
D ||----------------------------------------||
A ||--5--4--2--0-------5--5-7-5-------------||
E ||--------------3--3----------------------||

G ||----------------------------------------||
D ||----------------------------------------||
A ||--------5---3-3-3-3-3-4-5---------------||
E ||--3--3----------------------------------||

G ||----------------------------------------||
D ||----------------------------------------||
A ||--5--4--2--0-------5--5-7-5-------------||
E ||--------------3--3----------------------||

G ||----------------------------------------||
D ||----------------------------------------||
A ||--------5---3---------4-5---------------||
E ||--3--3----------------------------------||
Composição de João Ricardo / Paulinho Mendonça
Colaboração e revisão:
  • Flávio Amorim
900 exibições

0 comentários

Mostrar mais comentários

Conseguiu tocar?

0 Tocaram 0 Ainda não

Grave um vídeo tocando Assim Assado e mande pra gente!

00:00 / 00:00
outros vídeos desta música
repetir qualidade Automático
Outros vídeos desta música
00:00 / 00:00
Automático
OK