Cifra Club

Cargo Culte

Serge Gainsbourg

Cifra: Principal (violão e guitarra)
Selo Cifra Club: esta cifra foi revisada para atender aos critérios oficiais da nossa Equipe de Qualidade.
tom: D
E|-------------------------------------|
B|-------------------------------------|
G|-------------------------------------|
D|------------12------------------12---|
A|--12------------------12-------------|
E|0----0----0----0----0----0----0----0-|

[Verse 1]

E|-------------------------------------|
B|-------------------------------------|
G|-------------------------------------|
D|------------12------------------12---|
A|--12------------------12-------------|
E|0----0----0----0----0----0----0----0-|
       J'en sais, moi, des sorciers qui invoquent des jets

E|-------------------------------------|
B|-------------------------------------|
G|-------------------------------------|
D|------------12------------------12---|
A|--12------------------12-------------|
E|0----0----0----0----0----0----0----0-|
Dans la jongle de Nouvelle-Guinée.

E|0----------------------------------------------------------------------------|
B|-----------------------------------------------------------------------------|
G|-----------------------------------------------------------------------------|
D|------------12------------------12------------------12------------------12---|
A|--12------------------12------------------12------------------12-------------|
E|0----0----0----0----0----0----0----0----0----0----0----0----0----0----0----0-|
    Ils scrutent le zénith, convoitant les guinées que leur rapporterait le pillage du fret. 

E|-------------------------------------|
B|-------------------------------------|
G|-------------------------------------|
D|------------12------------------12---|
A|--12------------------12-------------|
E|0----0----0----0----0----0----0----0-|
    Sur la mer de Corail, au passage de cet appareil, ces créatures non dénuées de raison,

E|-------------------------------------|
B|-------------------------------------|
G|-------------------------------------|
D|------------12------------------12---|
A|--12------------------12-------------|
E|0----0----0----0----0----0----0----0-|
       Ces Papous, attendent des nuées, l'avarie du Viscount, 

E|--------------------------------------------------------------|
B|--------------------------------------------------------------|
G|--------------------------------------------------------------|
D|--------------------------2-2---------------------------------|
A|--0------------------------2-2----------0---------------------|
E|5--5----------------0--3--------0-0---0--0--3--2--2--1-1-1--0-|
       Celle du Comet.

E|----------------------------------------------------------------------------------------------------|
B|----------------------------------------------------------------------------------------------------|
G|----------------------------------------------------------------------------------------------------|
D|----------------------------------------------------------------------------------------------------|
A|----------------------------------------------------------------------------------------------------|
E|------------3--------------------0-------------------0-0-2/3--0---------2/3--------0--------0-0-3-2-|
Et comme leur totem n'a jamais pu abattre à leurs pieds         ni Boeing ni même DC-4,

  E
E|------------------------------------------------------------------|
B|---9--------------------------------------------------------------|
G|--9---------------------------------------------------------------|
D|-9----------------------------------------------------------------|
A|7-----------------------------------------------------------------|
E|-----------------------------2/3---------------------------0--5p0-|
      Ils rêvent de high-jacks     et d'accidents d'oiseaux.

E|--------------------------------------------------------|
B|--------------------------------------------------------|
G|--------------------------------------------------------|
D|--------------------------------------------------------|
A|--------------------------------------------------------|
E|0-0---3-0----2--0-0-0-0-5/12--------------------------0-|
                                Ces naufrageurs naïfs,     armés de sarbacanes,

E|-----------------------------------------------------------------|
B|-----------------------------------------------------------------|
G|-----------------------------------------------------------------|
D|9-9-8-8-8-8-8-8-8-8-8-8-7-7-7-7-7-7-6-6-6------9------9------9---|
A|7-7-7-7-7-7-7-7-7-7-7-7-7-7-7-7-7-7-7-7-7--------7------7--------|
E|-------------------------------------------0-0------0-----0----0-|
      Qui sacrifient ainsi au culte du Cargo             en soufflant vers l'azur et les aéroplanes.

[Instrumental]

  E5                       G5       D5 A5
E|----------------------------------------|
B|--9---------------5-5\0--3-3--3---------|
G|--9---------------6-6\1--4-4--2---------|
D|--9----9h8--------7-7\2--5-5--0--12/7-7-|
A|7-7----7----------7-7\2--5-5-----12/7-7-|
E|------------0-0--5-------3-3-----10/5-5-|

E5  G5  D5  A5  E5  G5  D5  A5  
E5  G5  D5  A5  E5  G5  D5  A5 
E5  G5  D5  A5  E5  G5  D5  A5
E5  G5  D5  A5  E5  G5  D5  A5
E5  G5  D5  A5  E5  G5  D5  A5

[Verse 2] 

E|------------------------------------------------|
B|------------------------------------------------|
G|------------------------------------------------|
D|9-9-9-8-8-8-7-7-7-6-----------6-6-6-5-5-5-4-4-4-|
A|7-7-7-7-7-7-7-7-7-7-----------7-7-7-7-7-7-7-7-7-|
E|------------------------------------------------|
              Où es-tu Melody ? Et ton corps disloqué

E|----------------------------------------------------|
B|----------------------------------------------------|
G|----------------------------------------------------|
D|9-9-9-8-8-8-7-7-7-6---------------6-6-6-5-5-5-4-4-4-|
A|7-7-7-7-7-7-7-7-7-7---------------7-7-7-7-7-7-7-7-7-|
E|----------------------------------------------------|
              Hante-t-il l'archipel que peuplent les sirènes ? 

 E      G      D      A      E      G      D      A
(Oooh ! oooh ! oooh ! oooh ! oooh ! oooh ! oooh ! oooh !)
          E5             G5                 D5                  A5
Ou bien, accrochée au cargo, dont la sirène d'alarme s'est tue, es-tu restée ?
 E5     G5     D5     A5       
(Oooh ! oooh ! oooh ! oooh !)
E5    G5     D5                 A5
        Au hasard des courants, as-tu déjà touché
E5    G5                  D5                  A5
      Ces lumineux coraux des côtes guinéennes 
E5                  G5            D5       A5
Où s'agitent en vain ces sorciers indigènes
                    E5                      G      D      A      E*  
Qui espèrent encore en des avions brisés ? (Oooh ! oooh ! oooh ! oooh !)

[Verse 3]

E|-----------------------------------|
B|-----------------------------------|
G|-----------------------------------|
D|9-9-9-8-8-8-7-7-7-6-6-6-5-5-5-4----|
A|7-7-7-7-7-7-7-7-7-7-7-7-7-7-7-7----|
E|---------------------------------0-|
                        N'ayant plus rien à perdre

E|-----------------------------------|
B|-----------------------------------|
G|-----------------------------------|
D|9-9-9-8-8-8-7-7-7-6-6-6-5-5-5-4----|
A|7-7-7-7-7-7-7-7-7-7-7-7-7-7-7-7----|
E|---------------------------------0-|
      Ni dieu en qui croire, afin qu'il me rende mes amours dérisoires

E|--------------------------------------------------------------------|
B|--------------------------------------------------------------------|
G|------------------------------------------------------------------9-|
D|9-9-9-8-8-8-7-7-7-6-6-6-5-5-5-4-4-4----------5-5-5-4-4-4-3-3-3----9-|
A|7-7-7-7-7-7-7-7-7-7-7-7-7-7-7-7-7-7----------7-7-7-7-7-7-7-7-7----7-|
E|----------------------------------------------------------------0---|
          Moi, comme eux, j'ai prié les cargos de la nuit. 

 E      G      D      A      E*     G*     D*     A*
(Oooh ! oooh ! oooh ! oooh ! ooah ! ooah ! ooah ! ooah !
E*     G*     D*     A*
Ooah ! ooah ! ooah ! ooah !)

[Verse 4]
 
E|-----------------------------------------------------|
B|-----------------------------------------------------|
G|-----------------------------------------------------|
D|-----------------------------------------------------|
A|-----------------------------------------------------|
E|0---0-0-0---0-0-1-0-------------------0-1-2---2-5----|
                   Et je garde cette espérance     d'un désastre

E5    G5          D5         A5 
Aérien qui me ramènerait Melody,

E|--------------------|
B|--------------------|
G|--------------------|
D|--------------------|
A|--------------------|
E|0-5-0-5-7-5-7-5-3-0-|

E5*     G5*       D5*             A5*
Mineure détournée de l'attraction des astres. 
E    G    D    A    E      G      D      A      E      G     D C5*
                   (Oooh ! oooh ! oooh ! oooh ! oooh ! oooh! Oooh)

[Bridge]

                       Fmaj7/C*
– Tu t'appelles comment ? (Ohooohah)
         Bmaj7*
– Melody. (Oooh)
Cmaj7*
   – Melody comment ? (Oooh)
Dmaj7*
   – Melody Nelson. (Oooh) 
 Fmaj7/C*    Bmaj7*    Cmaj7*    Dmaj7*
(ohooohooohooooohoooooohooohooohoooooh)

[Outro]       

E|-------------------------------------------|
B|-------------------------------------------|
G|-------------------------------------------|
D|9-9-9-9-9-8-8-8-8-8--7-7-7-7-7-6-6-6-6-6---|
A|7-7-7-7-7-7-7-7-7-7--7-7-7-7-7-7-7-7-7-7---|
E|-----------------------------------------0-| (x 10)
  (Oooh...)

E  G  D  A  E  G  D  A  
E  G  D  A  E  G  D  A  
E*
Outros vídeos desta música
    11 exibições
      • ½ Tom
      • A
      • Bb
      • B
      • C
      • Db
      • D
      • Eb
      • E
      • F
      • F#
      • G
      • Ab
    • Adicionar à lista

    Afinação da cifra

    Afinador online

      0 comentários

      Ver todos os comentários

      Entre para o Cifra Club PRO

      Tenha acesso a benefícios exclusivos no App e no Site

      • Chega de anúncios

      • Badges exclusivas

      • Mais recursos no app do Afinador

      • Atendimento Prioritário

      • Aumente seu limite de lista

      • Ajude a produzir mais conteúdo

      Cifra Club Pro

      Aproveite o Cifra Club com benefícios exclusivos e sem anúncios
      Cifra Club Pro
      Aproveite o Cifra Club com benefícios exclusivos e sem anúncios
      Ops (: Contenido disponible sólo en portugués.
      OK