Cifra Club

En Melody

Serge Gainsbourg

Cifra: Principal (violão e guitarra)
Selo Cifra Club: esta cifra foi revisada para atender aos critérios oficiais da nossa Equipe de Qualidade.
tom: Eb
E|----8---6---8---6---4------------------------------------------------------|
B|----5---5---5---5---5---8--6-----------------------------------------------|
G|---------------------------8b---7------------------------------------------|
D|---------------------------------------------------------------------------|
A|---------------------------------------------------------------------------|
E|---------------------------------------------------------------------------|

The rest of the song shifts from Bb minor to C minor:
* use your thumb for these chords

         Bb minor      C minor
E|-------6-------------8-----------------------------------------------------|
B|-------6-------------8-----------------------------------------------------|
G|-------6-------------8-----------------------------------------------------|
D|-------8-------------10----------------------------------------------------|
A|-------x-------------x----------------------------------------------------|
E|-------6-------------8-----------------------------------------------------|


[Outro]

E|----8---6---8---6---4------------------------------------------------------|
B|----5---5---5---5---5---8--------------------------------------------------|
G|----------------------------8b---8---7-------------------------------------|
D|---------------------------------------------------------------------------|
A|---------------------------------------------------------------------------|
E|---------------------------------------------------------------------------|

Melody voulut revoir le ciel de Sunderland
Elle prit le 707
L'avion cargo de nuit
Mais le pilote automatique aux commandes de l'appareil
Fit une erreur fatale à Melody 
Outros vídeos desta música
    12 exibições
      • ½ Tom
      • A
      • Bb
      • B
      • C
      • Db
      • D
      • Eb
      • E
      • F
      • F#
      • G
      • Ab
    • Adicionar à lista

    Afinação da cifra

    Afinador online

      0 comentários

      Ver todos os comentários

      Entre para o Cifra Club PRO

      Tenha acesso a benefícios exclusivos no App e no Site

      • Chega de anúncios

      • Badges exclusivas

      • Mais recursos no app do Afinador

      • Atendimento Prioritário

      • Aumente seu limite de lista

      • Ajude a produzir mais conteúdo

      Cifra Club Pro

      Aproveite o Cifra Club com benefícios exclusivos e sem anúncios
      Cifra Club Pro
      Aproveite o Cifra Club com benefícios exclusivos e sem anúncios
      Ops (: Contenido disponible sólo en portugués.
      OK