Cifra Club

Evguenie Sokolov

Serge Gainsbourg

Cifra: Principal (violão e guitarra)
Selo Cifra Club: esta cifra foi revisada para atender aos critérios oficiais da nossa Equipe de Qualidade.
tom: Cm
E|E|-------------------------------------------------------------------------------||
                     Serge Gainsbourg - Evguénie Sokolov
E|E|-------------------------------------------------------------------------------||

Album : Mauvaises nouvelles des étoiles
Tempo : 80
E-mail: gwendal.mollo@orange.fr
Tabbed by: newg


Rythm Guitar :
          Cm                       G
E|--------3-----------3-----------3-----------3-------|
B|--------4-----------4-----------3-----------3-------|
G|--------5-----------5-----------4-----------4-------|
D|--------5-----------5-----------5-----------5-------|
A|----------------------------------------------------|
E|----------------------------------------------------|

E|--------3-----------3-----------3-----------3-------|
B|--------3-----------3-----------4-----------4-------|
G|--------4-----------4-----------5-----------5-------|
D|--------5-----------5-----------5-----------5-------|
A|----------------------------------------------------|
E|----------------------------------------------------|

repeated throughout the song


Guitar 2 (Palm mute + Wah Wah) :

Riff 1 :
E|---------------------------------------------------|
B|---------------------------------------------------|
G|-5--5--------------5-----4-------------------------|
D|---------------------------------------------------|
A|---------------------------------------------------|
E|---------------------------------------------------|


E|---------------------------------------------------|
B|---------------------------------------------------|
G|--4--4--------------------5--5---------------------|
D|---------------------------------------------------|
A|---------------------------------------------------|
E|---------------------------------------------------|

Riff 2 :
E|----------------------------------------------------|
B|----------------------------------------------------|
G|--5-----------------5-----4-----------------4-------|
D|----------------------------------------------------|
A|----------------------------------------------------|
E|----------------------------------------------------|


E|----------------------------------------------------|
B|----------------------------------------------------|
G|--7-----------------7-----8--5--------------8-------|
D|----------------------------------------------------|
A|----------------------------------------------------|
E|----------------------------------------------------| x4
Outros vídeos desta música
    5 exibições
      • ½ Tom
      • Am
      • Bbm
      • Bm
      • Cm
      • C#m
      • Dm
      • Ebm
      • Em
      • Fm
      • F#m
      • Gm
      • G#m
    • Adicionar à lista

    Afinação da cifra

    Afinador online

      0 comentários

      Ver todos os comentários

      Entre para o Cifra Club PRO

      Tenha acesso a benefícios exclusivos no App e no Site

      • Chega de anúncios

      • Badges exclusivas

      • Mais recursos no app do Afinador

      • Atendimento Prioritário

      • Aumente seu limite de lista

      • Ajude a produzir mais conteúdo

      Cifra Club Pro

      Aproveite o Cifra Club com benefícios exclusivos e sem anúncios
      Cifra Club Pro
      Aproveite o Cifra Club com benefícios exclusivos e sem anúncios
      Ops (: Contenido disponible sólo en portugués.
      OK