Cifra Club

La Saison Des Pluies

Serge Gainsbourg

Cifra: Principal (violão e guitarra)
Selo Cifra Club: esta cifra foi revisada para atender aos critérios oficiais da nossa Equipe de Qualidade.
tom: F#
E|-(2)---------------2-3b-------2-2--(2)--------------(2)-------------(2)-2--3--4------7/8-9----7/8-7--|
B|-(4)--1--2--2/-4--(4)--------------(4)--------------(2)--------------4--------------(6)--------------|
G|--3---------------(3)--------------(3)-----------3--(3)-------------(4)-------------(6)--------------|
D|-(4)--------------(4)--------------(4)--------------(4)-------------(4)-------------(6)--------------|
A|------------------------------------------------------------------------------------(8)--------------|
E|-----------------------------------------------------------------------------------------------------|


E|--(6)-----------7--(6)----------/6--(6)-4-2----------(6)-------------(1)------------------------------|
B|--(7)--------------(7)--------------(7)-------6-4-4-6/7-------7-9-7--(1)-----------6------------------|
G|--(8)--------------(8)--------------(8)--------------(8)-------------(1)--------------6--2--3--3/-5---|
D|--(8)--------------(8)--------------(8)--------------(8)-------------(4)-------------(8)--------------|
A|-------------------------------------------------------------------------------------(8)--------------|
E|-------------------------------------------------------------------------------------(6)--------------|


E|--(1)--------------(1)|
B|---2---------------(2)|
G|--(1)----------1---(3)|
D|--(3)-----------3--(3)|
A|----------------------|
E|----------------------|





E|---------------|
| /   slide up
| b   bend
|( ) rythm note
______________
Outros vídeos desta música
    8 exibições
      • ½ Tom
      • A
      • Bb
      • B
      • C
      • Db
      • D
      • Eb
      • E
      • F
      • F#
      • G
      • Ab
    • Adicionar à lista

    Afinação da cifra

    Afinador online

      0 comentários

      Ver todos os comentários

      Entre para o Cifra Club PRO

      Tenha acesso a benefícios exclusivos no App e no Site

      • Chega de anúncios

      • Badges exclusivas

      • Mais recursos no app do Afinador

      • Atendimento Prioritário

      • Aumente seu limite de lista

      • Ajude a produzir mais conteúdo

      Cifra Club Pro

      Aproveite o Cifra Club com benefícios exclusivos e sem anúncios
      Cifra Club Pro
      Aproveite o Cifra Club com benefícios exclusivos e sem anúncios
      Ops (: Contenido disponible sólo en portugués.
      OK