Cifra Club

Que me quedes tu

Shakira

Cifra: Principal (violão e guitarra)
Tom: A#
                     INTRO

E||3--6--3-----3----------|----------------------||
B||---------6-----6--3--6-|-3-----------3--6--3--||
G||-----------------------|----5--3--5-----------||
D||-----------------------|----------------------||
A||-----------------------|----------------------||
E||-----------------------|----------------------||


E||-------------------------------|------------------------|
B||-------------------------------|------------------------|
G||-------------------------------|------------------------|
D||-------------------------------|------------------------|
A||3--3--6--3-3/1-----------------|------------------------|
E||----------------3--3--6--3--3--|-3--4--6--6--6--6--4--3-|

                      BIS
E|----------------------||
B|----------------------||
G|----------------------||
D|----------------------||
A|----------------------||
E|-1--1--5--1--1--5--1--||

F                      Cm
Que se arruinen los canales de noticias
Gm                    A#
Con lo mucho que odio la television
F                     Cm
Que se vuelvan anticuadas las sonrisas
Gm                        A#
Y que se extingan todas las puestas de sol
Cm         Gm          A#         F
Que se supriman las doctrinas y deberes
Cm         Gm          A#         F
Que se terminen las películas de accion
Cm         Gm          A#         F
Que se destruyan en el mundo los placeres
Cm                      Gm          
Y que se escriba hoy una ultima canción

CORO

                   A#
Pero que me quedes tu
            F
Me quede tu abrazo
              Gm              D#
Y el beso que inventas cada dia
             A#
Que me quede aquí 
               F
Después del ocaso
             Gm          D#
Para siempre tu melancolia
      A#     F     Cm       D#
Porque yo yo si si que dependo de ti
            A#                F F# Gm
Si me quedas tu, me queda la vida.
F                  Cm  
Que desaparezcan todos los vecinos
Gm                       A#
Y se coman las sobras de mi inocencia
F                   Cm   
Que se vallan uno a uno los amigos
Gm                          A#
Y acribillen mi pedazo de conciencia
Cm         Gm          A#         F
Que se consuman las palabras en los labios
Cm         Gm          A#         F
Que contaminen toda el agua del planeta
Cm         Gm          A#         F
O que renuncien los filántropos y sabios
Cm                    Gm          
Y que se muera hoy hasta el ultimo poeta

CORO
                   A#
Pero que me quedes tu
            F
Me quede tu abrazo
              Gm              D#
Y el beso que inventas cada dia
             A#
Que me quede aquí 
               F
Después del ocaso
             Gm          D#
Para siempre tu melancolia
      A#     F     Cm       D#
Porque yo yo si si que dependo de ti
            A#                F F# Gm
Si me quedas tu, me queda la vida.


CORO
                   A#
Pero que me quedes tu
            F
Me quede tu abrazo
              Gm              D#
Y el beso que inventas cada dia
             A#
Que me quede aquí 
               F
Después del ocaso
             Gm          D#
Para siempre tu melancolia
      A#     F     Cm       D#
Porque yo yo si si que dependo de ti
            A#                F F# Gm
Si me quedas tu, me queda la vida.

SOLO

E||-3--6--3-----3------------------|-----------------||
B||----------6-----6--3-----3--6-3-|-----4--2--1--0--||
G||----------------------5---------|--3--5--3--2--1--||
D||--------------------------------|-----------------||
A||--------------------------------|-----------------||
E||--------------------------------|-----------------||


E||-3--6--3-----3-------------------|----------------||
B||----------6-----6--3-----3--6--3-|-----4--2--1--0-||
G||----------------------5----------|--3--5--3--2--1-||
D||---------------------------------|----------------||
A||---------------------------------|----------------||
E||---------------------------------|----------------||


E||-9/11--13--11--13--11--13--15--|-13--11--13--13--11---9-|-
B||-------------------------------|-------------13--12--10-|-
G||-------------------------------|------------------------|-
D||-------------------------------|------------------------|-
A||-------------------------------|------------------------|-
E||-------------------------------|------------------------|-


E||-9/11--13--11--13--11--13--15--|-13--11--13--13--11--9--|-
B||-------------------------------|-------------13--12--10-|-
G||-------------------------------|------------------------|-
D||-------------------------------|------------------------|-
A||-------------------------------|------------------------|-
E||-------------------------------|------------------------|-
exibições 22.086
Acordes para:
    Composição: Luis Fernando Ochoa / Shakira Colaboração e revisão:
    • jeovany escarabelly

    0 comentários

    mostrar mais comentários

    Conseguiu tocar?

    0 tocaram 0 ainda não

    Grave um vídeo tocando Que me quedes tu e mande pra gente!

    00:00 / 00:00
    outros vídeos desta música
    repetir qualidade Automático
    Outros vídeos desta música
    00:00 / 00:00
    Automático
    OK