Cifra Club

Aprenda

Duvido Você Não Tomar Uma

Simone e Simaria

Cifra: Ao-vivo (violão e guitarra)
Já pensou em usar uma coleção de roupas do Cifra Club? Responda as perguntas abaixo e nos ajude nessa missão! →
tom: Ab
Intro 2x: Eb Bb Fm Ab

E|----------------------------------------------------|
B|--11-11-11-11-11-9-8--------------------------------|
G|--------------------10-10---------------------------|
D|----------------------------------------------------|
A|----------------------------------------------------|
E|----------------------------------------------------|

E|----------------------------------------------------|
B|--11-11-11-11-11-9-8-------------99999-8-66-44------|
G|---------------------10-10-10p8-8-------------------|
D|----------------------------------------------------|
A|----------------------------------------------------|
E|----------------------------------------------------|

            Eb
Mas agora veja, diz que ta mudada
             Fm                        Ab
Aposentou o copo não quer mais saber de álcool
               Eb
Disse que parou, que nunca mais beberia
             Fm                   Ab        Fm
Jurou pela vida, pela mãe, pela vô e pela tia
                  Ab
Mas é muita tentação 
 Eb                            Bb              Fm
O whatsapp tá chamando farras, festas e baladas
                Ab
Pra curar desilusão
    Eb                      Bb                  Fm  Bb (Eb)
Ou por uma boa causa toda jura feita, será perdoada
      
Eb                      Bb                              Fm
Quando a saudade maltratar vai lembrar da boca que era sua
  Ab                   Eb
Duvido você não tomar uma
                           Bb                                 Fm
Quando ouvir no rádio um modão ou no bar da esquina da sua rua
  Ab                   Eb
Duvido você não tomar uma
Composição de Tierry
Colaboração e revisão:
  • David Almeida
2.922 exibições
    • ½ Tom
    • A
    • Bb
    • B
    • C
    • Db
    • D
    • Eb
    • E
    • F
    • F#
    • G
    • Ab
  • Adicionar à lista

    0 comentários

    Ver todos os comentários

    Conseguiu tocar?

    0 Tocaram 1 Ainda não

    Grave um vídeo tocando Duvido Você Não Tomar Uma e nos envie!

    00:00 / 00:00
    Outros vídeos desta música
    Repetir Qualidade Automático
    Outros vídeos desta música
    00:00 / 00:00
    Automático

    Cifra Club Pro

    Aproveite o Cifra Club com benefícios exclusivos e sem anúncios
    Cifra Club Pro
    Aproveite o Cifra Club com benefícios exclusivos e sem anúncios
    OK