Cifra Club

Cancion Animal

Soda Stereo

Cifra: Principal (violão e guitarra)
Tom: D
Transcrito por: Carlos Ramirez
Afinacion: EADGBe


INTRO:
e|---7+-----------------------------|
B|----7+----------------------------|
G|-----7+---------------7+~---------| 2x
D|------7+----------7+--------------|
A|--------------7+------------------|
E|-----------7+---------------------|

VERSO:
e|------------------------------------------------------------------------|
B|---------------------------------------------3--------------------------|
G|----------------------------------------0-------------------------------|
D|--------0----------------------------2----------------------------------|
A|------2--------------------------3--------------------------------------|
E|----0-------------------------------------------------------------------|
        hipnotismo de un flagelo   dulce tan dulce


e|------------------------------------------------------------------------|
B|-----------3-------------------------------3----------------------------|
G|--------0-----------------------------0---------------------------------|
D|-----2----------------------------2-------------------------------------|
A|---3---------------------------3----------------------------------------|
E|------------------------------------------------------------------------|
             cuero piel y metal   carmin y charol

II:
e|-----------3-------0----3-----------------2--------------------0--------|
B|--------0--3-------2----3-----------------3------------3--------0-------|
G|------0----0-------2----0-----------------2-----------0-----0----0------|
D|----2------0-------2----0-----------------0------0---2-----2------2-----|
A|--3--------2-------0----2-----------------------2---3-----3--------2----|
E|-----------3------------3---------------------0---------------------0---|
              cuando no espera lo que llaman amor
                 el cuerpo

   VERSO,II


CORO:
e|--------2------0--------0----8-----0-----0-------------------------------|
B|--------3------1--------1-/8-------1-----0-------------------------------|
G|----0---2------2--------0----------2-----0-------------------------------|
D|---2----0------2--------2----------2-----2-------------------------------|
A|--3------------0--------3----------0-----2--3-3h5-3--2h3p2---------------|
E|-----------------------------------------0-----------------3-0-----------|
         mas se pide y se vive  cancion animal


e|----0--------0----------------------------------------------------------|
B|----1--------0----------------------------------------------------------|
G|----2--------0----------------------------------------------------------|
D|----2--------2----------------------------------------------------------|
A|----0--------2---3-3h5-3-2h3p2------------------------------------------|
E|-------------0-----------------3--0-------------------------------------|
   cancion animal

SOLO:
e|----/13--10-13-10-------------------------------------------------------|
B|------------------------------------------------------------------------|
G|--0----------------2-4h5p4\2-4h5p4-5/7-/12-10-9-10h9p10h9p10\-----------|
D|------------------------------------------------------------------------|
A|------------------------------------------------------------------------|
E|------------------------------------------------------------------------|

e|------------------------------------------------------------------------|
B|------------------------------------------------------------------------|
G|------/12-10-12-13-12-10-12--10-12-13-12-10-12---10-12-13-12-13-12~-----|
D|-/5~--------------------------------------------------------------------|
A|------------------------------------------------------------------------|
E|------------------------------------------------------------------------|


 VARIACION EN CORO:
e|----------2-----0---------0----2--0--0---2----0-----------0-----8-------|
B|----------3-----1---------1----3--1--1---3----1-----------1--/8---------|
G|------0---2-----2---------0----2--2--0---2----2-----------0-------------|
D|----2-----0-----2---------2----0--2--2---0----2-----------2-------------|
A|--3-------------0---------3-------0--3--------0-----------3-------------|
E|------------------------------------------------------------------------|
           mas se pide y se vive          mas se pide y se vive..etc


  FINAL:
e|---------------------0-----------|
B|---------3-----------0-----------|
G|-------0---------0---0-----------|
D|-----2---------2-----2-----------|
A|---3---------3-------2-----------|
E|---------------------0-----------|
exibições 7.445
Acordes para:

    0 comentários

    mostrar mais comentários

    Conseguiu tocar?

    0 tocaram 0 ainda não

    Grave um vídeo tocando Cancion Animal e mande pra gente!

    00:00 / 00:00
    outros vídeos desta música
    repetir qualidade Automático
    Outros vídeos desta música
    00:00 / 00:00
    Automático
    OK