Cifra Club

Entre caníbales (unplugged)

Soda Stereo

Cifra: Principal (violão e guitarra)
Selo Cifra Club: esta cifra foi revisada para atender aos critérios oficiais da nossa Equipe de Qualidade.
tom: Em
[Intro] C  D  C  D
        C  D  C  D 

[Tab - Intro]

E|-------------------|
B|-------------------|
G|-------------------|
D|---2---------------| (x4)
A|-----0-2-3-5-------|
E|-------------0-3-5-|

     Em      C  D  Am7
Una eternidad
    Em  C       D      Am7
Esperé  este instante
        Em    C  D   Am7
Y no lo dejaré
     Em C      D          Am7
Deslizar en recuerdos quietos

     C7
E|---0---0------------------------------0-|
B|---1---3------------------------------5-|
G|---3---5------------------------------7-|
D|---2---4------------------------------6-|
A|---3---5------------------------------7-|
E|---0---0------------------------------0-|
        Ni en balas rasantes que matan

[Refrão]

Am G  D       Am     Em    G     D  Am7
Ah........come de mi,come de mi carne
Em C D Am7         Em      G D D4 D Am7
Ah........entre caníbales
Em C/G D         Am7          Em  C/G  D  Am7
Ah.....tómate el tiempo en desmenuzarme
Em C/G D Am7         C   D 
Ah..........entre caníbales

( C  D  C  D  C  D )

        Em     C/G  D  Am7
Entre caníbales
     Em  C/G      D     Am7
El dolor    es veneno, nena
        Em      C/G   D   Am7
Y no lo sentirás
         Em  C/G             D       Am7
Hasta el fin    mientras te muevas lento

  C7
E|-0-----0----------------------------0-|
B|-1-----3----------------------------5-|
G|-3-----5----------------------------7-|
D|-2-----4----------------------------6-|
A|-3-----5----------------------------7-|
E|-0-----0----------------------------0-|
   Lento y jadees el nombre que mataaa

[Refrão]

( Am  G  D  Am7  Em  G  D  Am7 )

Em C D Am         Em      G D D4 D Am7
Ah........entre caníbales
Em C/G D         Am7          Em  C/G  D  Am7
Ah.....tómate el tiempo en desmenuzarme
Em C/G D Am7          C   D
Ah..........entre caníbales

( C  D  C  D  C  D )

E|-------------------------------|
B|-----8-------------------------|
G|-7h9---9-7---------------------|
D|-----------9-7-9-7-5---5-------|
A|---------------------7---7-5---|
E|-----------------------------7-|

[Riff 1]

E|-------------------------------------------------------------|
B|-----------------------------------------7-8-7-5-------------|
G|-4---------4-2-4---------4-2-4-------4-2---------4-2-4h5-5-4-|
D|---2-4-2-2-------2-4-2-2-------2-4-2-------------------------|
A|-------------------------------------------------------------|
E|-------------------------------------------------------------|

( Em  Am7  D  Am7  Em  Am7  D  Am7 ) 
( Em  Am7  D  Am7  Em  Am7  D  Am7 ) 
( Em  Am7  D  Am7  Em  Am7  D  Am7 ) 
( Em  Am7  D  Am7  Em  Am7  D  Am7 ) 

Em C/G D Am7 Em     C/G D Am7
Ah           come de mí
Em C/G D Am7 Em     C/G D Am7
Ah           come de mí
Em C/G D Am7 Em C/G D Am7  Em   C/G D Am7
Ah                     una eternidad
  Em  C/G  D        Am7  Em
Esperé este instante
Outros vídeos desta música
4.177 exibições
    • ½ Tom
    • Am
    • Bbm
    • Bm
    • Cm
    • C#m
    • Dm
    • Ebm
    • Em
    • Fm
    • F#m
    • Gm
    • G#m
  • Adicionar à lista

Afinação da cifra

Afinador online

    0 comentários

    Ver todos os comentários

    Entre para o Cifra Club PRO

    Tenha acesso a benefícios exclusivos no App e no Site

    • Chega de anúncios

    • Mais recursos no app do Afinador

    • Atendimento Prioritário

    • Aumente seu limite de lista

    • Ajude a produzir mais conteúdo

    Cifra Club Pro

    Aproveite o Cifra Club com benefícios exclusivos e sem anúncios
    Cifra Club Pro
    Aproveite o Cifra Club com benefícios exclusivos e sem anúncios
    OK