Cifra Club

Dont Say A Word

Sonata Arctica

Cifra: Principal (violão e guitarra)
Selo Cifra Club: esta cifra foi revisada para atender aos critérios oficiais da nossa Equipe de Qualidade.
tom: F
Please mail me if you can find mistakes!
E|----------------------------------------------------|
Jani plays with 7-strings guitar tuned in dropped eb

   /0:00 Intro
Eb|E|----------------------------------------------------|------------------------|
Bb|E|----------------------------------------------------|------------------------|
Gb|*E|----------------------------------------------------|-----------------------|
Db|*-----5-------5-------5-------5-------5-------5-------5-------5-------------|
Ab|------5-------5-------5-------5-------5-------5-------5-------5--------5----|
Eb|--3-3-3-3-3-3-3-3-3-3-3-3-3-3-3-3-3-3-3-3-3-3-3-3-3-3-3-3-3-3-3-3------5----|
Bb|E|----------------------------------------------------|---------------3-3-3-3-3|
     ...|  .....|  .....|  .....|  .....|  .....|  .....|  .....|  ......|  ...
E|---------------------------------| ------------
                               / 1.                              |/ 2.
Eb|---------------------------|------------------------------------------------|
Bb|---------------------------|----------------------------------|-------------|
Gb|E|----------------------------------------------------|---------*|-------------|
Db|---------------------------|---------------------------------*|-------------|
Ab|-5---5---5-----5-----5---5------3-----3---3-----3-----3---3---|-----3------3|
Eb|-5---5---5-----5-----5---5------3-----3---3-----3-----3---3---|-----3------3|
Bb|-3-3-3-3-3-3-3-3-3-3-3-3-3--1-1-1-1-1-1-1-1-1-1-1-1-1-1-1-1-----1-1-1--1-1-1|
      .|  .|  ...|  ...|  .|   ...|  ...|  .|  .|    ...|  .|      ...|   ...|
E|--------------------------|
                              |/0:17 Verse
Eb|E|----------------------------------------------------|------------------------|
Bb|---------------------------|------------------------------------------------|
Gb|---------------------------|*-----------------------------------------------|
Db|---------------------------|*-----5-------5-------5-------5-------5-------5-|
Ab|-------3---1--3--1--0------|------5-------5-------5-------5-------5-------5-|
Eb|-------3-3-------------3~--|--3-3-3-3-3-3-3-3-3-3-3-3-3-3-3-3-3-3-3-3-3-3-3-|
Bb|---1-1-1-1E|----------------------------------------------------|--------------|
      ...|  ............|        ...|  .....|  .....|  .....|  .....|  .....|

Eb|E|----------------------------------------------------|------------------------|
Bb|E|----------------------------------------------------|------------------------|
Gb|E|----------------------------------------------------|------------------------|
Db|-------5-------5E|----------------------------------------------------|--------|
Ab|-------5-------5--------5-----5---5---5-----5-----5---5------3-----3---3----|
Eb|-3-3-3-3-3-3-3-3-3------5-----5---5---5-----5-----5---5------3-----3---3----|
Bb|--------------------3-3-3-3-3-3-3-3-3-3-3-3-3-3-3-3-3-3--1-1-1-1-1-1-1-1-1-1|
    .....|  .....|  ......|  ...|  .|  .|  ...|  ...|  .|   ...|  ...|  .|  ...|

                 /0:34 Pre-Chorus a
Eb|E|----------------------------------------------------|------------------------|
Bb|-------------|E|----------------------------------------------------|----------|
Gb|------------*|E|----------------------------------------------------|----------|
Db|------------*|E|----------------------------------------------------|----------|
Ab|-----3---3---|-6------3------3------5-------------------------6-----6---6---|
Eb|-----3---3---|-6------3------3------5-------------------------6-----6---6---|
Bb|-1-1-1-1-1-----4------1------1------3----3-3-3-3-3-3-3-3--4-4-4-4-4-4-4-4-4-|
    ...|  .|                                p.m............| ...|  ...|  .|  ..

Eb|E|----------------------------------------------------|------------------------|
Bb|E|----------------------------------------------------|------------------------|
Gb|E|----------------------------------------------------|------------------------|
Db|E|----------------------------------------------------|------------------------|
Ab|---6-----6---6------3-----3---3---3--1--0------------------3-----3---3-----3|
Eb|---6-----6---6------3-----3---3------------3--2------------3-----3---3-----3|
Bb|-4-4-4-4-4-4-4--1-1-1-1-1-1-1-1-1----------------5--4--1-1-1-1-1-1-1-1-1-1-1|
    .|  ...|  .|   ...|  ...|  .|  .|                     ...|  ...|  .|  ...|

                                                 /0:52 Verse 2   /1:09 Pre-Chor
Eb|E|----------------------------------------------------|------------------------|
Bb|---------------------------------------------|---------------|--------------|
Gb|---------------------------------------------|-----Verse-----|-----Pre-Choru|
Db|---------------------------------------------|---------------|--------------|
Ab|-----3---3------5-----5---5-----5-----5---5--|---------------|--------------|
Eb|-----3---3------5-----5---5-----5-----5---5--|---------------|--------------|
Bb|-1-1-1-1-1--3-3-3-3-3-3-3-3-3-3-3-3-3-3-3-3---------------------------------|
    ...|  .|   ...|  ...|  .|  ...|  ...|  .|

    us a 2 /1:26                                                            /
Eb|E|----------------------------------------------------|--------------------|-----|
Bb|-------|-----These-first-two-chords-are-the-last-of-the-Pre-Chorus-a----|-----|
Gb|-s-a---|---/E|----------------------------------------------------|--------------|
Db|-------|E|----------------------------------------------------|------------|-----|
Ab|-------|-----3-----3---3-----3-----3---3------5-----5---5-----5---5---5-------|
Eb|-------|-----3-----3---3-----3-----3---3------5-----5---5-----5---5---5-------|
Bb|---------1-1-1-1-1-1-1-1-1-1-1-1-1-1-1-1--3-3-3-3-3-3-3-3-3-3-3-3-3-3-3--4-4--|
            ...|  ...|  .|  ...|  ...|  .|   ...|  ...|  .|  ...|  .|  .|   ..|

    Pre-Chorus b                         /1:29 Chorus
Eb|E|----------------------------------------------------|------------------------|
Bb|-------------------------------------|--------------------------------------|
Gb|-------------------------------------|*---------------------A.H.------------|
Db|-------------------------------------|*-----5--5----------5-5~---------5--5-|
Ab|-6-------6---5--3-----------3--------|------5--5----------5------------5--5-|
Eb|-6-------6---------6--5--6-----6--5~-|--3-3-3--3--3-3-3---3--------3-3-3--3-|
Bb|-4-4-4-4-4-4E|----------------------------------------------------|------------|
      .....|  .|                           ...|      .....|  .|       ...|

                                                                           /1:4
Eb|E|----------------------------------------------------|-------------------|----|
Bb|E|----------------------------------------------------|-------------------|----|
Gb|E|----------------------------------------------------|------------------*|----|
Db|-------3------3-------5---5-------------------------------------------*|----|
Ab|-------3------3-------5---5-----6------6-------3------3------8----8----|----|
Eb|---1-1-1--1-1-1---3-3-3-3-3-----6------6-------3------3------6----5----|----|
Bb|------------------------------4-4--4-4-4---1-1-1--1-1-1--1-1-----------|----|
      ...|   ...|    ...|  .|    .|   ...|    ...|   ...|   ...|

    6 Verse 2             /2:04 Pre-Chorus a 3 with P-C b 2       /2:23 Chorus
Eb|E|----------------------------------------------------|------------------------|
Bb|--At-first------------|---------------------------------------|-------------|
Gb|--Just-keyboard.------|----------Pre-Chorus-a-with-b----------|-----Chorus--|
Db|--Guitar-is-quiet-----|---------------------------------------|-------------|
Ab|--a| nd-then-continues--|---------------------------------------|-------------|
Eb|--in-verse.-----------|---------------------------------------|-------------|
Bb|E|----------------------------------------------------|------------------------|
                                                              _________________
    2   /2:40 Bridge                                         / 1.
Eb|E|----------------------------------------------------|-----|------------------|
Bb|----|E|----------------------------------------------------|-------------------|
Gb|----|*---------------------------------------------------|------------------|
Db|----|*-----7-x-7------7-x-7------7------7-x-7------5---5-|-----7-x-7------3-|
Ab|----|------7-x-7------7-x-7------7------7-x-7------5---5-------7-x-7------3-|
Eb|----|--5-5-5-x-5--5-5-5-x-5--5-5-5--5-5-5-x-5--5-5-3---3---5-5-5-x 5--5-5-1-|
Bb|E|----------------------------------------------------|------------------------|
          ...|       ...|       ...|   ...|       ...|        ...|       ...|
E|--------------------------|_____  ______________
                                   |/ 2.           |/2:58 Saying
Eb|E|----------------------------------------------------|------------------------|
Bb|--------------------------------|---------------|---------------------------|
Gb|-------------------------------*|---------------|*--------------------------|
Db|---3-------------------5---5---*|-7----3--------|*--------------------------|
Ab|---3-----------5-x-5---3---2----|-7----3--------|----------5---5----5----5--|
Eb|---1---1-1-----5-x-5------------|-5----1--------|----------5---5----5----5--|
Bb|-----------3-3-3-x-3------------------------3-3--------3-3-3-3-3--3-3--3-3--|
          p.m....|                             ...|       ...|  .|   .|   .|
                                                                             __
                                                                            / 1
Eb|E|----------------------------------------------------|--------------------|---|
Bb|E|----------------------------------------------------|------------------------|
Gb|E|----------------------------------------------------|--------------------|---|
Db|------------------------9---8------------------8----8------8------5---5-|---|
Ab|-----5-------5---5------9---8--------5---5-----8----8------8------5---5-----|
Eb|-----5-------5---5------7---6--------5---5-----6--6-6--6-6-6--3-3-3-3-3--3-3|
Bb|-3-3-3---3-3-3-3-3--3-3-7---6----3-3-3-3-3--3-------------------------------|
    ...|    ...|  .|   ...|         ...|  .|   .|    .|   ...|   ...|  .|   ...
E|------------| -----------------
    .           |/ 2.              |/3:15              /3:24 Guitar enters
Eb|E|----------------------------------------------------|------------------------|
Bb|-------------|------------------|------------------|------------------------|
Gb|------------*|------------------|-----Keyboard-----|------------------------|
Db|-----A.H.---*|------------------|------------------|------------------------|
Ab|-----5~------|------------------|------------------|------------------------|
Eb|-3-3---------|-3-3-1-1-1-1-0-0~-|------------------|-5--5--5--5--5--5--5--5-|
Bb|E|----------------------------------------------------|------------------------|
    ...|          p.m.............|                     p.m....................

Eb|E|----------------------------------------------------|--------------------------|
Bb|E|----------------------------------------------------|--------------------------|
Gb|E|----------------------------------------------------|--------------------------|
Db|E|----------------------------------------------------|------------------//\-----|
Ab|E|----------------------------------------------------|------------------//\-----|
Eb|--5--5--5--5--5--5--5--5--5--5--5--5--5--5--5--5--5--5--5--5--5--5--5-//\-----|
Bb|E|----------------------------------------------------|--------------------------|
    ....................................................................|

Eb|E|----------------------------------------------------|------------------------|
Bb|E|----------------------------------------------------|------------------------|
Gb|E|----------------------------------------------------|------------------------|
Db|E|----------------------------------------------------|------------------------|
Ab|---7-----7-------------------7-----7---------------------7-----7------------|
Eb|-5---5-5---5--5--5--5--5---5---5-5---5--5-5-5--5-5-5---5---5-5---5--5--5--5-|
Bb|E|----------------------------------------------------|------------------------|
    .|  ...|  p.m..............|  ...|  p.m............|  .|  ...|  p.m........

Eb|E|----------------------------------------------------|------------------------|
Bb|E|----------------------------------------------------|------------------------|
Gb|E|----------------------------------------------------|------------------------|
Db|--------5-----5-------9-----9-----------------------------------------------|
Ab|------3---3-3---3---7---7-7---7-----7-----7--------------------7-----7------|
Eb|--5-------------------------------5---5-5---5--5--5--5-5-5---5---5-5---5--5-|
Bb|E|----------------------------------------------------|------------------------|
     .|  .|  ...|  .|  .|  ...|  .|  .|  ...|  p.m...........|  .|  ...|  p.m..

Eb|E|----------------------------------------------------|------------------------|
Bb|E|----------------------------------------------------|------------------------|
Gb|E|----------------------------------------------------|------------------------|
Db|----------------------------------------------5-----5-------9-----9-----7~--|
Ab|----------------7-----7---------------------3---3-3---3---7---7-7---7---7~--|
Eb|-5-5--5-5-5---5---5-5---5--5--5--5--5-5-5-------------------------------5~--|
Bb|E|----------------------------------------------------|------------------------|
    ..........|  .|  ...|  p.m..............|  .|  ...|  .|  .|  ...|  .|

          /3:55 Interlude
Eb|E|----------------------------------------------------|------------------------|
Bb|------|E|----------------------------------------------------|-----------------|
Gb|------|-----------------------------------------------3------3--------------|
Db|------|-----------------------------------------------3------3--------------|
Ab|------|-----3------3------3------3------3------3--1-1-1--1-1-1------3------3|
Eb|------|-----3------3------4------4------3------3--------------------3------3|
Bb|--------1-1-1--1-1-1--1-1-1--1-1-1--1-1-1--1-1-1----------------1-1-1--1-1-1|
           ...|   ...|   ...|   ...|   ...|   ...|   ...|   ...|   ...|   ...|

Eb|E|----------------------------------------------------|------------------------|
Bb|E|----------------------------------------------------|------------------------|
Gb|E|----------------------------------------------------|------------------------|
Db|------6------6------3------3------------------------------------------------|
Ab|------6------6------3------3------6------5-------6------6------6------6-----|
Eb|--4-4-4--4-4-4--1-1-1--1-1-1------6------6-------6------6------7------7-----|
Bb|------------------------------4-4-4--3-3-3---4-4-4--4-4-4--4-4-4--4-4-4--4-4|
     ...|   ...|   ...|   ...|   ...|   ...|    ...|   ...|   ...|   ...|   ...|

Eb|E|----------------------------------------------------|------------------------|
Bb|E|----------------------------------------------------|------------------------|
Gb|-------------------------------------------4------4-------------------------|
Db|-------------------------------------------4------4------6------6------4----|
Ab|-6------6------4------4------6------6--2-2-2--2-2-2------6------6------4----|
Eb|-6------6------4------4------6------6----------------4-4-4--4-4-4--2-2-2--1-|
Bb|-4--4-4-4--2-2-2--2-2-2--4-4-4--4-4-4---------------------------------------|
       ...|   ...|   ...|   ...|   ...|   ...|   ...|   ...|   ...|   ...|   ..

          /4:12 Keyboard solo
Eb|E|----------------------------------------------------|------------------------|
Bb|------|E|----------------------------------------------------|-----------------|
Gb|------|E|----------------------------------------------------|-----------------|
Db|---3--|E|----------------------------------------------------|-----------------|
Ab|---4--|E|----------------------------------------------------|-----------------|
Eb|-1-1--|-1-1-1--1--1-1--1-1--1-1-1---1-1-1--1--1-----------------1-1-1--1--1-|
Bb|------------------------------------------------4--4-4--4-4-4---------------|
    .|     p.m.................................................................

Eb|E|----------------------------------------------------|------------------------|
Bb|E|----------------------------------------------------|------------------------|
Gb|---------------------3--3---------------------------------------------------|
Db|---------------------3--3------6---5-------3--3----3----3------3-------3--3-|
Ab|-4--4-4--4-4-4---1-1-1--1--1-1-6---6-------3--3----3----3------3-------3--3-|
Eb|-------------------------------4---3---1-1-1--1--1-1--1-1--1-1-1---1-1-1--1-|
Bb|E|----------------------------------------------------|------------------------|
    ...................|      ...|        ...|      .|   .|   ...|    ...|

                                                                     /4:30 Guit
Eb|E|----------------------------------------------------|--------------------------|
Bb|E|----------------------------------------------------|-------------|-11h13p11---|
Gb|--------------------------------6----6------6-------3--3---6----|-------------|
Db|------------------------3--3----6----6------6-------3--3---6\---|-------------|
Ab|----6----6------6-------3--3----4--4-4--4-4-4---1-1-1--1---4\---|-------------|
Eb|--1-6----6------6---1-1-1--1--1----------------------------------|------------|
Bb|----4--4-4--4-4-4E|----------------------------------------------------|---------|
     .|   .|   ...|    ...|      .|   .|   ...|    ...|

    ar solo
Eb|E|----------------------------------------------------|------------------------|
Bb|-----------11h13p11-----------11h13p11-----------11h13p11-----------11h13p11|
Gb|-14p12p10-----------14p12p10-----------14p12p10-----------14p12p10----------|
Db|E|----------------------------------------------------|------------------------|
Ab|E|----------------------------------------------------|------------------------|
Eb|E|----------------------------------------------------|------------------------|

Eb|E|----------------------------------------------------|------------------------|
Bb|-----11h13p11E|----------------------------------------------------|-----------|
Gb|-14-----------14--10h12p10----------10h12p10----------10h12p10----------10h-|
Db|---------------------------14p12p10----------14p12p10----------14p12p10-----|
Ab|E|----------------------------------------------------|------------------------|
Eb|E|----------------------------------------------------|------------------------|


Eb|------------------------------------------17h20p17-----------17h20p17-------|
Bb|---------------------------------------------------20p18p15-----------20p18p|
Gb|-12p10----------10h12p10-----10h12p10---------------------------------------|
Db|-------14p12p10----------14-----------14------------------------------------|
Ab|E|----------------------------------------------------|------------------------|
Eb|E|----------------------------------------------------|------------------------|


Eb|-----17h20p17-----------17h20p17-----------17h20p17-----17h20p17-----13h15p-|
Bb|-15-----------20p18p15-----------20p18p15-----------20-----------20---------|
Gb|E|----------------------------------------------------|------------------------|
Db|E|----------------------------------------------------|------------------------|
Ab|E|----------------------------------------------------|------------------------|
Eb|E|----------------------------------------------------|------------------------|
Bb|E|----------------------------------------------------|------------------------|


Eb|-13-----------13h15p13-----------13h15p13-----------13h15p13----------------|
Bb|----15p13p11-----------15p13p11-----------15p13p11-----------15p13p11-13b(15|
Gb|E|----------------------------------------------------|------------------------|
Db|E|----------------------------------------------------|------------------------|
Ab|E|----------------------------------------------------|------------------------|
Eb|E|----------------------------------------------------|------------------------|
Bb|E|----------------------------------------------------|------------------------|

Eb|E|----------------------------------------------------|---------------12-13-15~|
Bb|-)~E|----------------------------------------------------|10-11-13/15----------|
Gb|---------------------------------------------7-9-10/12----------------------|
Db|----------------------------5-7-8/10--7-8-10--------------------------------|
Ab|-----------3-5-6-5--3-5-6/8-------------------------------------------------|
Eb|-----3-5-6E|----------------------------------------------------|--------------|
        p.m...........................................................


Eb|-/18p15--------------15p10----------------------------------------------13~-|
Bb|--------15-----------------11-----------------------------------------------|
Gb|-----------15-----------------12----------------12-----------------12~------|
Db|--------------17-----------------12----------12----12-----------12----------|
Ab|-----------------17-----------------13-10-13----------13--10-13-------------|
Eb|E|----------------------------------------------------|------------------------|

                                                          /4:47 Pre-Chorus a 4
Eb|----12~E|----------------------------------------------------|-----------------|
Bb|----------13~-----------------------------------------|---------------------|
Gb|----------------12~---10~---9~------------------------|-----Pre-Chorus-a-wit|
Db|---------------------------------10~------------------|---------------------|
Ab|---------------------------------------10~----/13~~~--|---------------------|
Eb|E|----------------------------------------------------|--|---------------------|
Bb|E|----------------------------------------------------|------------------------|

    with P-C b 3  /5:07 Chorus 3   /5:24 Last Chorus
Eb|E|----------------------------------------------------|------------------------|
Bb|--------------|----------------|--------------------------------------------|
Gb|-h-b----------|-----Chorus-----|*-------------------------------------------|
Db|--------------|----------------|*-----10--10---------10------10-------10--10|
Ab|--------------|----------------|------10--10---------10------10-------10--10|
Eb|--------------|----------------|--8-8-8---8---8-8-8--8---8-8-8----8-8-8---8-|
Bb|E|----------------------------------------------------|------------------------|
                                     ...|        .....|     ...|     ...|

Eb|E|----------------------------------------------------|------------------------|
Bb|E|----------------------------------------------------|------------------------|
Gb|E|----------------------------------------------------|------------------------|
Db|-----------8------8-------10---10-----6------6------------------------------|
Ab|-----------8------8-------10---10-----6------6-------8------8---------------|
Eb|--8-8--6-6-6--6-6-6---8-8-8--8-8----4-4--4-4-4-------8------8-------6----6--|
Bb|-------------------------------------------------6-6-6--6-6-6---6-6-4----3--|
     p.m.....|   ...|    ...|   .|     .|   ...|    ...|   ...|    ...|

E|-------------------------------| |
B|----|--------------------------| |
G|---*|----------Th| e-------------||
D|---*|---------------| end.-------||
A|----|-3--3---------------------| |
E|----|-3--3---------------------| |
E|------1--1---------------------| |

E|----------------------------------------------------|-----------------------

Rythm guitar during guitar solo:
Eb|E|----------------------------------------------------|------------------------|
Bb|E|----------------------------------------------------|------------------------|
Gb|*E|----------------------------------------------------|-----------------------|
Db|*E|----------------------------------------------------|-----------------------|
Ab|------5---6---3h5-----3-------3-5-------5---6---3h5-----3-------3-5------5--|
Eb|--3-3---3---3-----3h6---3-5-6-------3-3---3---3-----3h6---3-5-6----------5--|
Bb|E|----------------------------------------------------|-----------------3-3-3-3|
                                                                        ...|  .

Eb|E|----------------------------------------------------|--------||
Bb|E|----------------------------------------------------|--------||
Gb|E|----------------------------------------------------|-------*||
Db|E|----------------------------------------------------|-------*||
Ab|---5---5-----5-----5---5------3-----3---3-----3-----3---3---||
Eb|---5---5-----5-----5---5------3-----3---3-----3-----3---3---||
Bb|-3-3-3-3-3-3-3-3-3-3-3-3--1-1-1-1-1-1-1-1-1-1-1-1-1-1-1-1---||
    .|  .|  ...|  ...|  .|   ...|  ...|  .|  ...|  ...|  .|


E|----------------------------------------------------|-----------------------
=======================
=TABA TUD  EXPA NATION=
=======================

s = silent in the song

* = palm mute

A.H. = Artificial Harmonic

pm..| = Palm mute

h = hammer on

p = pull off

/ = slide up

 = slide down

~ = Vibrato

b() = Bend

x = Pick Slide

E|--------|
B|--------|
G|---12---| = Tremolo pick
D|----/---|
A|----/---|
E|----/---|

E|---.---|
B|--12---| = Staccato
G|-------|
D|-------|
A|-------|

|     |
|     |
|*   *| = repeat from * to *
|*   *|
|     |
|     |

* - also notes

E|----------------------------------------------------|---------------
************
* SLOVAKIA *
************
Outros vídeos desta música
    67 exibições
      • ½ Tom
      • A
      • Bb
      • B
      • C
      • Db
      • D
      • Eb
      • E
      • F
      • F#
      • G
      • Ab
    • Adicionar à lista

    Afinação da cifra

    Afinador online

      0 comentários

      Ver todos os comentários

      Entre para o Cifra Club PRO

      Tenha acesso a benefícios exclusivos no App e no Site

      • Chega de anúncios

      • Badges exclusivas

      • Mais recursos no app do Afinador

      • Atendimento Prioritário

      • Aumente seu limite de lista

      • Ajude a produzir mais conteúdo

      Cifra Club Pro

      Aproveite o Cifra Club com benefícios exclusivos e sem anúncios
      Cifra Club Pro
      Aproveite o Cifra Club com benefícios exclusivos e sem anúncios
      Ops (: Contenido disponible sólo en portugués.
      OK